Chordie logo


Biding My Time   Pink Floyd


BIDING MY TIME

"Relics"

TAB


e-|-8----8---8-----8s13-13-12-12-11-11-10-10s\--||
B-|-9-------------------------------------------||
G-|-10------------------------------------------||  REPEAT
D-|-10------------------------------------------||
A-|---------------------------------------------||
E-|---------------------------------------------||

e-|-------------------------------------------|
B-|----------8--9-8---------------------------|
G-|-------------8-7----7-8--7-8--7-8--7-8-----|
D-|---------9*--9-8----6-7--6-7--6-7--6-7-----|
A-|-8-9-10*------------7-8--7-8--7-8--7-8-----|
E-|-------------------------------------------|
          *Let ring
LYRICS:

Wasting my time, resting my mind
And I'll never pine
For the sad days and the bad days
When we was workin' from nine to five
And if you don't mind
I'll spend my time
Here by the fire side
In the warm light of her eyes
And if you don't mind
I'll spend my time
Here by the fire side
In the warm light of her eyes



Important: The song above is NOT stored on the Chordie server. The original song is hosted at www.pinkfloyd-co.com. Chordie works as a search engine and provides on-the-fly formatting. Chordie does not index songs against artists/composers will. To remove this song please click here.

This song is displayed as text-only. Transposing and tuning is only available for chordpro-songs.

Login - add to songbook

Rating click stars to rate

Layout
Accuracy

SHARE PAGE  




You need to log in to post comments