Wishing Well

Black Sabbath

=== The Eternal Idol's Black Sabbath Tablature
=== http://www.rdrop.com/~mjames/sabbath/

from - Michael James
Wishing Well Black Sabbath - Heaven And Hell (1980)
tune down 1/2 step
|-----------------------------------------------------------------------| |------------------------------------------------------10----12-10--10/-| |--------------16---14-------14/16-----------------16--11----12-11--11/-| |-14--14-14----16---14-------14/16----14--14-14----16--12----12-12--12/-| |-14--14-14----14---12-------12/14----14--14-14----14--12-12------------| |-12--12-12---------------------------12--12-12--------10-10------------|
"I'll give you a star...." |---------------------------------------------------------- |---------------------------------------------------------- |---------------------------------------------------------- |-10--10--10-10---12--12--12-12----9--9--9-9---14--14------ |-10--10--10-10---12--12--12-12----9--9--9-9---14--14------ |--8---8---8--8---10--10--10-10----7--7--7-7---12--12------
"Don't you know that i might be..." ---------------------------------------| ---------------------------------------| ---------------------------------------| --12-10--10--10-10----12--12--12-12----| --12-10--10--10-10----12--12--12-12----| --10--8---8---8--8----10--10--10-10----|
Fills: |------------------------------------------------| |------------------------------------------15----| |-14p12-14p12------14p12-14p12----12-14/16-------| |-------------14---------------14----------------| |------------------------------------------------| |------------------------------------------------|
|-------------------------------------------------| |----------15-17--17-15-12h15p12------------------| |-12h14/16-----------------------14-12-14^p12-14--| |-------------------------------------------------| |-------------------------------------------------| |-------------------------------------------------|
|----------------------------------------------------------------| |----------------------------------------------------------12-15-| |-12h14p12\11-12p11----------------------------------12-14-------| |-------------------12-14-14-12----12----------12-14-------------| |-------------------------------14----14-12/14-------------------| |----------------------------------------------------------------|
|-12-15-----15--14----14-----14-15--17-15-14h15p14\12-14-12---- |------------------15----15---------------------------------15- |-------------------------------------------------------------- |-------------------------------------------------------------- |-------------------------------------------------------------- |--------------------------------------------------------------
|----------------------------| |----------------------------| |-14-12-14^-12---------------| |--------------14------\-----| |----------------------------| |----------------------------|end fills
"Time is a never endidng journey..." |---------------------------------------------------------- |----3-----3--3--3-3-----0---0--0-------------------------- |----4-----2--2--2-2-----1---1--1-------------------------- |-5--5-----0--0--0-0-2---2---2--2-------------------------- |-5--5---------------2---2---2--2-------------------------- |-3--3---2-----------0-------0--0--------------------------
Fill:1 |----12----------15-14--12-14------------------------------ |-12----15^---12--------------15~~~------------------------ |---------------------------------------------------------- |---------------------------------------------------------- |---------------------------------------------------------- |---------------------------------------------------------- Fill:2 |-----12--------------------------------------------------- |-12-----15-12----12--------------------------------------- |--------------14----14-14^-14-12-------------------------- |---------------------------------14----------------------- |---------------------------------------------------------- |----------------------------------------------------------
***Note*** Thsi solo is weird, and is one of the hardest to follow. Be sure to get the rythm paced with what you are playing.
Solo:1 |---------------------------------------------------------- |---------------------------------------------------------- |volume in------7-----------------7---7-9-9^9-9-7-9^9------ |-------------7---9~~--7---7^7--9---9---------------------- |-7~~-----5/7------------7--------------------------------- |----------------------------------------------------------
|-------------------------------------------------12------- |----------------------------------------------12----15^15- |---7---7-9-7-9^9-7----12----12-14^14-12-14^14------------- |-9---9-------------14----14------------------------------- |---------------------------------------------------------- |----------------------------------------------------------
|---------------------------------------------------------- |-12h15p12----12-----------------------12-15^-------15-17-- |----------14----14-12----12-14-12-14^--------14/16-------- |----------------------14---------------------------------- |---------------------------------------------------------- |----------------------------------------------------------
|-15~-------------------------------------------------------------- |----17\15----15--------------------------------------------------- |----------16----16\14-12------------------------------------------ |-------------------------14~-----12------------------------------- |------------------------------------14-14\12-10h12-10h12-12/14\12- |------------------------------------------------------------------
|---------------------------------------------------------------- |---------------------------------------------------------------- |----------------------------------12----12----14^14-12^12-11---- |----------------------12----12/14----14----14----------------14- |-12/14\12-10----12/14----14------------------------------------- |-------------12-------------------------------------------------
|---------------------------------------------------------- |---------------------------------------------------------- |-12p11----------11----11^~~------------------------------- |-------14-12-14----14----------14\12---------------------- |-------------------------------------14--12-10-12/14\12--- |----------------------------------------------------------
|---------------------------------------------------------- |---------------------------------------------------------- |---------------------------------------------------------- |---------------------------------------------------------- |-12\10-10------------------------------------------------- |----------12-12----and so on------------------------------
Solo:2 |---------------------------------------------------------- |---------------------------------------------------------- |----------------------------------------12~--------------- |--------9-------------------------12-14---\14~------------ |-7--7-----12p10-12----10-12-12/14------------------------- |----------------------------------------------------------
|-14--------------------------------------------------------- |----15-12----12h15p12-12------------------------------------ |----------14-------------14-12h14p12----12------------------ |-------------------------------------14---14p12-12h14p12---- |---------------------------------------------------------14- |------------------------------------------------------------
|---------------------------------------------------------- |---------------------------------------------------------- |-----------------------------------12\--11\--------------- |-------12--------------------------12\--12\--------------- |-12-14----14\12-12^12-10---------------------------------- |-------------------------12~---\-x------------------------
|------15------12-14-12------------------------------------ |-15-^------15----------12h15p12--------------------------- |--------------------------------14-12h14p12--------------- |--------------------------------------------and so on...-- |---------------------------------------------------------- |----------------------------------------------------------
Ending: |--------------------------------------| |--------------------------------------| |--------------------------------------| |--------------------------------------| |-14\--14\--14\--14\--------------2----| |-12\--12\--12\--12\---\--\-\--\--0----|















variations - click chord images
Transpose chords:
Tuning:
Cool service:
View: Size:
A  A  A
Rating:
Layout:
  • Currently 0/5 Stars.
  • 1
  • 2
  • 3
  • 4
  • 5
 
Accuracy:
  • Currently 2.6/5 Stars.
  • 1
  • 2
  • 3
  • 4
  • 5
 
click stars to rate
Chordie recommends:
Get acoustic guitar lessons and electric guitar lessons at JamPlay.com
Songbook:
Login to add this song to your songbook
Support the artist
Preview/buy this song
MSN Music
Why this non-profit ad?

 
login to add comments/video/corrections