Double trouble

Eric Clapton


Double Trouble Eric Clapton
E||----------10\\-|--5------------------------| B||-------10-----|--6------------------------| G||--12b---------|--7------------------------| D||--------------|---------------------------| A||--------------|---------------------------| E||--------------|---------------------------|
------------------------------------------------| ------------------------------------------------| ------------10---12-10----14\\12b----12-10-------| ------10/12-------------------------------12-10-| ------------------------------------------------| ------------------------------------------------|
--------------------------17--17------|--------------------| --------------------------18--18------|--------18---20-18--| --------------------------19--19------|--18/19-------------| --------------------------------------|--------------------| --12-10-------------------------------|--------------------| --------13-10-------------------------|--------------------|
----x------------------------------------------| ---------20b--18-------------------------------| -----------------19----------------------------| ---------------------19\\17--15-----------------| -------------------------------17\\-10-8--------| ----------------------------------------10-8---|
------------13--15--13--15b-15b---15~--13-----| ------14/15-------------------------------15--| ----------------------------------------------| ----------------------------------------------| ----------------------------------------------| ----------------------------------------------|
--------------------------------------|------------------------| --------------------------------------|------------------------| --------------------------------------|----------------10--12--| ---------------------10---------------|----10/12-10/12---------| --------------11/12-----10--8---------|------------------------| -------------------------------10--8--|------------------------|
----------------------------------------| --------13--13--------------------------| --13/14---------13/14-12----------------| ----------------------------------------| ----------------------------------------| ----------------------------------------|
-----------------------------------------------------| ------9/10-------------------------------------------| -----------10----------------------------------------| --------------12---10--------------------------------| ----------------------10h12-10h12--10-----10---8-----| --------------------------------------10---------10--|
------------------------------------|--------------------------| ------------------------------------|--------------------------| ------------------------------------|--------------------------| ------------------------------------|--------------------------| ------------10h12-------------------|--------------------------| --10----10----------10--------------|--------------------------|
----------13b-10--------------------|--------------------------| -----------------13-10-13-----------|--------------------------| ------------------------------------|--------------------------| ------------------------------------|--------------------------| ------------------------------------|--------------------------| ------------------------------------|--------------------------|
--------13r----10-10~-----------|----------------------------10-13-10-| --------------------------------|----------------------12/13----------| --------------------------------|-------------------------------------| --------------------------------|-------------------------------------| --------------------------------|-------------------------------------| --------------------------------|-------------------------------------|
--------10-13-10---------------------| --12/13------------------------------| -------------------------------------| -------------------------------------| -------------------------------------| -------------------------------------|
------------13--------------------------------------------------| --------13------12/13-12/13-12/13-12/13-12/13-12/13-------------| --13/14---------13/14-13/14-13/14-13/14-13/14-13/14\\12-10-------| ----------------------------------------------------------12----| ----------------------------------------------------------------| ----------------------------------------------------------------|
--------------------------------------------------------| --12/13-12/13-12/13-12/13-12/13-12/13-------------------| --13/14-13/14-13/14-13/14-13/14-13/14\\12-10-------------| --------------------------------------------12----------| --------------------------------------------------------| --------------------------------------------------------|
--------------------------|--------------------------| --------------------------|--------------------------| --------------------------|--------------------------| --------------------------|--------------------------| --------------------------|--------------------------| --------------------------|--------------------------|
--------10--13p10-10----10----13b13b13b13b| ------------------------------------------| ------------------------------------------| ------------------------------------------| ------------------------------------------| ------------------------------------------|
--13b-10--------------------------------------| ---------13-12b-12b-12b-12b-------------------| ----------------------------12r---10----------| --------------------------------------12------| ----------------------------------------------| ----------------------------------------------|
---------------10------------------------------| -----------10------10--10--10--10--10--10--10--| ------9/10---------10--10--10--10--10--10--10--| ---------------------------12--12--12--12--12--| -----------------------------------------------| -----------------------------------------------|
--2/3-3--3--3--3--3--3--3--3--3\\-----|-----------------------------| --2/3-3--3--3--3--3--3--3--3--3\\-----|--9/-10-10--10--10\\----------| --2/3-3--3--3--3--3--3--3--3--3\\-----|--9/-10-10--10--10\\----------| --4/5-5--5--5--5--5--5--5--5--5\\-----|--11/12-12--12--12\\----------| -------------------------------------|-----------------------------| -------------------------------------|-----------------------------|
--------------------------|--------13-10----------10-----------------| --------------------------|--------------13-10-13b---13-10-----------| --------------------------|------------------------------------------| --------------------------|------------------------------------------| --------------------------|------------------------------------------| --------------------------|------------------------------------------|
--------------------------|----------13b-10--------------------| --------------------------|-----------------13-10-13-----------| --------------------------|------------------------------------| --------------------------|------------------------------------| --------------------------|------------------------------------| --------------------------|------------------------------------|
--------------------------|--------13r----10-10~-----------| --------------------------|--------------------------------| --------------------------|--------------------------------| --------------------------|--------------------------------| --------------------------|--------------------------------| --------------------------|--------------------------------|
----------------------------10-13-10-|--------10-13-10------------| ----------------------12/13----------|--12/13---------------------| -------------------------------------|----------------------------| -------------------------------------|----------------------------| -------------------------------------|----------------------------| -------------------------------------|----------------------------|
------------13--------------------------------------------------| --------13------12/13-12/13-12/13-12/13-12/13-12/13-------------| --13/14---------13/14-13/14-13/14-13/14-13/14-13/14\\12-10-------| ----------------------------------------------------------12----| ----------------------------------------------------------------| ----------------------------------------------------------------|
--------------------------------------------------------| --12/13-12/13-12/13-12/13-12/13-12/13-------------------| --13/14-13/14-13/14-13/14-13/14-13/14\\12-10-------------| --------------------------------------------12----------| --------------------------------------------------------| --------------------------------------------------------|
--------------------------|--------------------------| --------------------------|--------------------------| --------------------------|--------------------------| --------------------------|--------------------------| --------------------------|--------------------------| --------------------------|--------------------------|
--------10--13p10-10----10----13b13b13b13b| ------------------------------------------| ------------------------------------------| ------------------------------------------| ------------------------------------------| ------------------------------------------|
--13b-10--------------------------------------| ---------13-12b-12b-12b-12b-------------------| ----------------------------12r---10----------| --------------------------------------12------| ----------------------------------------------| ----------------------------------------------|
---------------10------------------------------|-------------| -----------10------10--10--10--10--10--10--10--|---------------| ------9/10---------10--10--10--10--10--10--10--|----------------| ---------------------------12--12--12--12--12--|------------| -----------------------------------------------|---------------| -----------------------------------------------|--------------|
--------------------------|--------------------------| --------------------------|--------------------------| --------------------------|--------------------------| --------------------------|--------------------------| --------------------------|--------------------------| --------------------------|--------------------------|
2x |----------------------------|| |----------------------------|| |*--------------------------*|| |*--------------------------*|| |----------------------------|| |----------------------------||
Didn\'t see this tab up so thought i would put it up.








variations - click chord images
Transpose chords:
Tuning:
Cool service:
View: Size:
A  A  A
Rating:
Layout:
  • Currently 0/5 Stars.
  • 1
  • 2
  • 3
  • 4
  • 5
 
Accuracy:
  • Currently 5/5 Stars.
  • 1
  • 2
  • 3
  • 4
  • 5
 
click stars to rate
Chordie recommends:
Learn to play this song & others via video guitar lessons at JamPlay.com
Songbook:
Login to add this song to your songbook
Support the artist
Preview/buy this song
MSN Music
Why this non-profit ad?

 
login to add comments/video/corrections