Chordie logo


Double trouble   Eric Clapton



Double Trouble                                  
Eric Clapton




                                              
E||----------10\\-|--5------------------------|
B||-------10-----|--6------------------------|
G||--12b---------|--7------------------------|
D||--------------|---------------------------|
A||--------------|---------------------------|
E||--------------|---------------------------|


                                                 
------------------------------------------------|
------------------------------------------------|
------------10---12-10----14\\12b----12-10-------|
------10/12-------------------------------12-10-|
------------------------------------------------|
------------------------------------------------|


                                                                            
--------------------------17--17------|--------------------|
--------------------------18--18------|--------18---20-18--|
--------------------------19--19------|--18/19-------------|
--------------------------------------|--------------------|
--12-10-------------------------------|--------------------|
--------13-10-------------------------|--------------------|


                                                
----x------------------------------------------|
---------20b--18-------------------------------|
-----------------19----------------------------|
---------------------19\\17--15-----------------|
-------------------------------17\\-10-8--------|
----------------------------------------10-8---|


                                               
------------13--15--13--15b-15b---15~--13-----|
------14/15-------------------------------15--|
----------------------------------------------|
----------------------------------------------|
----------------------------------------------|
----------------------------------------------|


                                                                              
--------------------------------------|------------------------|
--------------------------------------|------------------------|
--------------------------------------|----------------10--12--|
---------------------10---------------|----10/12-10/12---------|
--------------11/12-----10--8---------|------------------------|
-------------------------------10--8--|------------------------|


                                         
----------------------------------------|
--------13--13--------------------------|
--13/14---------13/14-12----------------|
----------------------------------------|
----------------------------------------|
----------------------------------------|


                                                      
-----------------------------------------------------|
------9/10-------------------------------------------|
-----------10----------------------------------------|
--------------12---10--------------------------------|
----------------------10h12-10h12--10-----10---8-----|
--------------------------------------10---------10--|


                                                                
------------------------------------|--------------------------|
------------------------------------|--------------------------|
------------------------------------|--------------------------|
------------------------------------|--------------------------|
------------10h12-------------------|--------------------------|
--10----10----------10--------------|--------------------------|


                                                                
----------13b-10--------------------|--------------------------|
-----------------13-10-13-----------|--------------------------|
------------------------------------|--------------------------|
------------------------------------|--------------------------|
------------------------------------|--------------------------|
------------------------------------|--------------------------|


                                                                       
--------13r----10-10~-----------|----------------------------10-13-10-|
--------------------------------|----------------------12/13----------|
--------------------------------|-------------------------------------|
--------------------------------|-------------------------------------|
--------------------------------|-------------------------------------|
--------------------------------|-------------------------------------|


                                      
--------10-13-10---------------------|
--12/13------------------------------|
-------------------------------------|
-------------------------------------|
-------------------------------------|
-------------------------------------|


                                                                 
------------13--------------------------------------------------|
--------13------12/13-12/13-12/13-12/13-12/13-12/13-------------|
--13/14---------13/14-13/14-13/14-13/14-13/14-13/14\\12-10-------|
----------------------------------------------------------12----|
----------------------------------------------------------------|
----------------------------------------------------------------|


                                                         
--------------------------------------------------------|
--12/13-12/13-12/13-12/13-12/13-12/13-------------------|
--13/14-13/14-13/14-13/14-13/14-13/14\\12-10-------------|
--------------------------------------------12----------|
--------------------------------------------------------|
--------------------------------------------------------|


                                                      
--------------------------|--------------------------|
--------------------------|--------------------------|
--------------------------|--------------------------|
--------------------------|--------------------------|
--------------------------|--------------------------|
--------------------------|--------------------------|


                                           
--------10--13p10-10----10----13b13b13b13b|
------------------------------------------|
------------------------------------------|
------------------------------------------|
------------------------------------------|
------------------------------------------|


                                               
--13b-10--------------------------------------|
---------13-12b-12b-12b-12b-------------------|
----------------------------12r---10----------|
--------------------------------------12------|
----------------------------------------------|
----------------------------------------------|


                                                
---------------10------------------------------|
-----------10------10--10--10--10--10--10--10--|
------9/10---------10--10--10--10--10--10--10--|
---------------------------12--12--12--12--12--|
-----------------------------------------------|
-----------------------------------------------|


                                                                           
--2/3-3--3--3--3--3--3--3--3--3\\-----|-----------------------------|
--2/3-3--3--3--3--3--3--3--3--3\\-----|--9/-10-10--10--10\\----------|
--2/3-3--3--3--3--3--3--3--3--3\\-----|--9/-10-10--10--10\\----------|
--4/5-5--5--5--5--5--5--5--5--5\\-----|--11/12-12--12--12\\----------|
-------------------------------------|-----------------------------|
-------------------------------------|-----------------------------|


                                                                      
--------------------------|--------13-10----------10-----------------|
--------------------------|--------------13-10-13b---13-10-----------|
--------------------------|------------------------------------------|
--------------------------|------------------------------------------|
--------------------------|------------------------------------------|
--------------------------|------------------------------------------|


                                                                
--------------------------|----------13b-10--------------------|
--------------------------|-----------------13-10-13-----------|
--------------------------|------------------------------------|
--------------------------|------------------------------------|
--------------------------|------------------------------------|
--------------------------|------------------------------------|


                                                            
--------------------------|--------13r----10-10~-----------|
--------------------------|--------------------------------|
--------------------------|--------------------------------|
--------------------------|--------------------------------|
--------------------------|--------------------------------|
--------------------------|--------------------------------|


                                                                            
----------------------------10-13-10-|--------10-13-10------------|
----------------------12/13----------|--12/13---------------------|
-------------------------------------|----------------------------|
-------------------------------------|----------------------------|
-------------------------------------|----------------------------|
-------------------------------------|----------------------------|


                                                                 
------------13--------------------------------------------------|
--------13------12/13-12/13-12/13-12/13-12/13-12/13-------------|
--13/14---------13/14-13/14-13/14-13/14-13/14-13/14\\12-10-------|
----------------------------------------------------------12----|
----------------------------------------------------------------|
----------------------------------------------------------------|


                                                         
--------------------------------------------------------|
--12/13-12/13-12/13-12/13-12/13-12/13-------------------|
--13/14-13/14-13/14-13/14-13/14-13/14\\12-10-------------|
--------------------------------------------12----------|
--------------------------------------------------------|
--------------------------------------------------------|


                                                      
--------------------------|--------------------------|
--------------------------|--------------------------|
--------------------------|--------------------------|
--------------------------|--------------------------|
--------------------------|--------------------------|
--------------------------|--------------------------|


                                           
--------10--13p10-10----10----13b13b13b13b|
------------------------------------------|
------------------------------------------|
------------------------------------------|
------------------------------------------|
------------------------------------------|


                                               
--13b-10--------------------------------------|
---------13-12b-12b-12b-12b-------------------|
----------------------------12r---10----------|
--------------------------------------12------|
----------------------------------------------|
----------------------------------------------|


                                                                           
---------------10------------------------------|-------------|
-----------10------10--10--10--10--10--10--10--|---------------|
------9/10---------10--10--10--10--10--10--10--|----------------|
---------------------------12--12--12--12--12--|------------|
-----------------------------------------------|---------------|
-----------------------------------------------|--------------|


                                                      
--------------------------|--------------------------|
--------------------------|--------------------------|
--------------------------|--------------------------|
--------------------------|--------------------------|
--------------------------|--------------------------|
--------------------------|--------------------------|


                             2x
|----------------------------||
|----------------------------||
|*--------------------------*||
|*--------------------------*||
|----------------------------||
|----------------------------||



Important: The song above is NOT stored on the Chordie server. The original song is hosted at www.rockmagic.net. Chordie works as a search engine and provides on-the-fly formatting. Chordie does not index songs against artists/composers will. To remove this song please click here.

This song is displayed as text-only. Transposing and tuning is only available for chordpro-songs.

Login - add to songbook

Rating click stars to rate

Layout
Accuracy

SHARE PAGE  




You need to log in to post comments