Chordie logo


Sossity youre a woman   Jethro Tull



Sossity; you're a woman 
                           Jethro Tull 
                         Album: Benefit 

Intro: play twice 
   Am ----| C------ 
E|--------------------------------------------------------------------- 
B|-----1--------1------------------------------------------------------ 
G|---2--------0----------0--------0--------0--------------------------- 
D|-2-----2--------2----0--------2--------0---------0------------------- 
A|-0--------3--------2------3-3------2-2---------0--------------------- 
E|---------------------------------------------2----------------------- 

E|------------------------0-----------------0------------------------- 
B|--------------------------1-0----------0----------------------------- 
G|----------------------1----------2-1-1------------------------------- 
D|-------0---2-2/3-2--------------------------------------------------- 
A|-----0--------------------------------------------------------------- 
E|-1-1-----------------------------------------0---------------------- 

  Verse: 
    Hello you straight laced lady dressed in white but your shoes aren't 
    clean. 
                                  4strums 
                                   Fmaj7           Am       C 
E|-------------------0--------------0------------0-------0-------------- 
B|--------------3------3-------0----1------------0h-1----1-------------- 
G|--------------2----------2-----0--2---2-2-0----0h-2----2-------------- 
D|--------0-2-3-0--------0---0------3---------3--0h-2----2-------------- 
A|--0-2-3-------0-------------------3------------------0----3-2-0h2p0--- 
E|--------------------------------------------------------------------3- 

 Painted them up with polish, in the hopes we can't see where you've been. 
                                  4strums 
                                   Fmaj7           Am ----------------| 
E|-------------------0--------------0------------0-------0-------------- 
B|--------------3------3-------0----1------------0h-1----1------1-1----- 
G|--------------2----------2-----0--2---2-2-0----0h-2----2------2-2----- 
D|--------0-2-3-0--------0---0------3---------3--0h-2----2------2-2----- 
A|--0-2-3-------0-------------------3------------------0---------------- 
E|----------------------------------------------------------0h3--------- 

 The smiling face that you worn to greet me rising at morning 

          Am       C       G------|        Am    C        E------| 
E|--------0--------------------------------0--------------------------- 
B|--------1--------------------------------1--------------------------- 
G|--------2--------------------------------2--------------------------- 
D|--------2----------2---------0-----------2--------2----------2------- 
A|--0-2-3------0-2-3---3-0---2-------0-2-3----0-2-3---3-0----2---0----- 
E|-------------------------3-----3-------------------------0----------- 

  Send me out to work for my score, please me and say what for. 
           3strums 
Bar 3rd fret,Cm    Cm -----| Bb -------|     Am                   C 
E|---------3-------3-------------6-------------------------------------------- 
B|---------4-------4-------------6------------------1-1-----1----------------- 
G|---------5-------5-------------7----------------2---2-----2---------0-----0- 
D|------3--5-------5--5-7-5-0----8----------0-0h2-----2-----2---2---2-----0--- 
A|--3-6----------3-------------8-8--8-10-8------------0-----0-0---3-----2----- 
E|------------------------------------------------------0h3------------------- 

 Chorus repeats this part twice 
                 Sossity 
                                       Dm   C|(alt. strum Am and base notes) 
E|---0-----------5-----5-----0---0-----1----3---0---0----------------0---- 
B|--10-----------8-----5-----3---3-----3----5---0h1-1----------------1---- 
G|---9-----------7-----5-----4---2-----2----5---0h2-2----------------2--- 
D|---7-----------5-----7-----5---3-----0----5---0h2-2----------------2--- 
A|---0-----------0-----0-----0---0-----0----3---0---0-----0----------0--- 
E|------------------------------------------------------3----0-3---3--- 

 Ending: 
after final chorus, repeat intro and end with this run 
                                            E 
E|-----------------------------0------------0--------0----------------- 
B|-------------------0--0-1-3----3-1---0h1--0--------0----------------- 
G|---------------0-2-----------------2------1----1-2-2----------------- 
D|---------0-2-3----------------------------2--2-----2----------------- 
A|--0-2-3-----------------------------------2--------0----------------- 


Important: The song above is NOT stored on the Chordie server. The original song is hosted at www.rockmagic.net. Chordie works as a search engine and provides on-the-fly formatting. Chordie does not index songs against artists/composers will. To remove this song please click here.

This song is displayed as text-only. Transposing and tuning is only available for chordpro-songs.

Login - add to songbook

Rating click stars to rate

Layout
Accuracy

SHARE PAGE  




You need to log in to post comments