Guitar Tabs, Chords and Lyrics


A Long Way Home-tab  Dwight Yoakam

                      [D]               [Em]                      [G]       
e -----------------------------------------------------------
B -----------------------------------------------------------
G -----------------------------------------------------------
D ------0-2/4-0-----0--------0-4-2-----------0-2/4-0---0-----
A --0-2---------2-0------0-2-------------0-2---------2-------
E ---------------------------------0---------------------3---

End of riff
                      [D]                                            
e ----------------------
B ----------------------
G ----------------------
D ------0-2/4-0-----0---
A --0-2---------2-0-----
E ----------------------

Note about the riff:
Strum each named chord to fill in the gaps between the next part of
the riff
[D]Don't look inside, don't look th[Em]ere
'Cause you might [G]find [A]yourself somew[D]here
A walkin' round, lost and a[Em]lone
I have one c[G]lue, [A]that it's a long way h[D]ome
riff
Years and years is a long time
To drag your heart across every rock you find
The hurt is deep and it's pull is strong
But the passion shows that it's a long way home
Bridge
Oh and [Em]I can't take one s[G]ingle step for y[D]ou
But [Em]I might just help [G]to find some small path-a-way th[A]rough[D]
riff
Don't look back, 'cause you might see
Just how far all that used to be
Let your mind think on what's gone
Then you'll know that it's a long way home
Yeah, you'll[G] know [A]that it's a long way h[D]ome
You'll find out that it's a long way home
Em A G D(end of riff)
Ain't no doubt that it's a long way home


Important: The song above is NOT stored on the Chordie server. The original song is hosted at www.roughstock.com. Chordie works as a search engine and provides on-the-fly formatting. Chordie does not index songs against artists'/composers' will. To remove this song please click here.

Text color:
Chord color:
Chord grids: 
Font size:    
Page size: 

A D Em G
variations - click chord images

Login - add to songbook

Transpose chords

Tuning

Rating click stars to rate

Layout
Accuracy

SHARE PAGE  




You need to log in to post comments