born to loose

Johnny Cash



------------------------------------------

------------------------------------------

------------------------------------------

--3-3-2----------------------0-3-0--------

---------5-3---------------3--------------

---------------5-6--3-1-------------------


 CDG
Born to loose, I've lived my life in vain
 CGD
Every dream has only brought me pain
 CGD
All my life I've always been so blue
 CDG
Born to loose, and now I'm losing you

Born to loose, it seems so hard to bare
how I long to always have you near
You've grown ??? and now you're ??? through
Born to loose, and now I'm losing you

--3-3-2----------------------0-3-0--------
---------5-3---------------3--------------
---------------5-6--3-1-------------------

Born to loose, my every hope is gone
It's so hard to face that empty dawn
You were all the happiness I knew
Born to loose and now I'm losing you

There is no use to dream of happiness
All I see is only loneliness
All my life I've alway been so blue
Born to lose and now I'm losing you

*°*°*°*°*°*°*°*°*°*°*°*°*°*°*°*°*°*°*
Whoever knows the words that should be
in the place of those ???, please mail me
Jeroen Pollentier
jeroenpollentier@hotmail.com









C D G
variations - click chord images
Transpose chords:
Tuning:
Cool service:
View: Size:
A  A  A
Rating:
Layout:
  • Currently 1.7/5 Stars.
  • 1
  • 2
  • 3
  • 4
  • 5
 
Accuracy:
  • Currently 1.5/5 Stars.
  • 1
  • 2
  • 3
  • 4
  • 5
 
click stars to rate
Chordie recommends:
Learn to play songs at Jamplay.com with video guitar lessons
Songbook:
Login to add this song to your songbook
Support the artist
Preview/buy this song
MSN Music
Why this non-profit ad?

 
login to add comments/video/corrections