What Its Like

Everlast

E----3--1h3-----0-0----0-0--------------------------------

B---3------3----1-1----1-1--------------------------------
G--2-----------2-------0----------------------------------
D-0-----------3-------2-----------------------------------
A--------------------3------------------------------------
E---------------------------------------------------------
 Dsus4Fmaj7C

Verse/Chorus
E-1--1-1---0--0-0---0--0-0----1h3p1(0)*-1-----------------
B-3--3-3---1--1-1---1--1-1----3---------3-----------------
G-2--2-2---2--2-2---0--0-0----2---------2-----------------
D----------3--3-3---2--2-2--------------------------------
A-------------------3--3-3--------------------------------
E---------------------------------------------------------

 DmFmaj7CDm*

*the star indicates a kinda tricky part to play. I dunno if I tabbed it out right so i'll
write it here. hold your fingers like you're playing Dm, quickly strum thru the notes
normally, hammer highE 3rd fret with your pinkie, then quickly pulloff your index finger
from highE 1st fret to an open highE. Then you put your index finger hard on where it just
was and strum Dm once again. The last strum is actually the beginning of the next series.

Preverse

E---1--1s3--3----1--1s3-5-3---1--1s3-3----1---1---1-------
B----3-3s5---5----3-3s5--------3-3s5--5----3---3---3------
G--2------------2------------2-----------2--2---2---2-----
D-0------------0------------0-----------0-----------------
A---------------------------------------------------------
E---------------------------------------------------------

 sliding Dm
Outro

E---1--1--1-----0--0--0-----0---0---0------1--1--3--------
B----3--3--3-----1--1--1-----1---1---1------3--3--3-------
G--2--2--2--2--2--2--2--2-----0---0---0---2--2--2---------
D-0-----------3------------2-------------0----------------
A-------------------------3-------------------------------
E---------------------------------------------------------

 DmFmaj7CDm
E---1--1--1-----0--0--0-----0---0---0------1--3--1--------
B----3--3--3-----1--1--1-----1---1---1------3--3--3-------
G--2--2--2--2--2--2--2--2-----0---0---0---2--2--2---------
D-0-----------3------------2-------------0----------------
A-------------------------3-------------------------------
E---------------------------------------------------------

 DmFmaj7CDm

Lyrics- (i cut some punctuation so it all fits on one line)

...:::Verse 1:::...
 DmFmaj7CDm*
Weve all seen men at the liquor store beggin for your change
 DmFmaj7CDm*
The hair on his face is dirty dreadlocked and full of mange

 DmFmaj7CDm*
He asks a man for what he can spare with shame in his eyes
 DmFmaj7CDm*
Get a job you fucking slob is all he replies
 DmFmaj7CDm*
God forbid you ever had to walk a mile in his shoes
 DmFmaj7CDm*
Then you really might know what its like to sing the blues

...:::Chorus:::...
 DmFmaj7CDm*
Cause then you really might know what it's like
 DmFmaj7CDm*
Cause then you really might know what it's like
 DmFmaj7CDm*
Cause then you really might know what it's like
 DmFmaj7CDm*
Cause then you really might know what it's like

...:::Verse 2:::...
 DmFmaj7CDm*
Mary got pregnant from a kid named Tom said he was in love
 DmFmaj7C
Saiddont worry bouta thing babydoll Im the man you been dreamin of
 DmFmaj7CDm*
3 months later he say he wont date her or return her calls
 DmFmaj7CDm*
She swear Godamim if I find that man Im cuttin off his balls
 DmFmaj7CDm*
God forbid you ever had to walk a mile in her shoes
 DmFmaj7CDm*
Then you really might know what it's like to have to choose

...:::Chorus:::...
 DmFmaj7CDm*
Cause then you really might know what it's like
 DmFmaj7CDm*
Cause then you really might know what it's like
 DmFmaj7CDm*
Cause then you really might know what it's like
 DmFmaj7CDm*
Cause then you really might know what it's like

...:::Bridge:::...(played same as intro)

 Dsus4Fmaj7C
Seen a rich man beg seen a good man sin seen a tough man cry
 Dsus4Fmaj7C
Seen a loser win, a sad man grin, heard an honest man lie
 Dsus4Fmaj7
 C
Seen the goodside of bad seen the down side of up and everything between 
 Dsus4Fmaj7
 C
Licked the silver spoon drank from the golden cup smoked the finest creme 
 Dsus4Fmaj7
 C
Stroked the daddies' dimes atleast a couple of times before I broke their hearts 
 Dsus4Fmaj7C
You know where it ends it usually depends on where u start

...:::Verse 3:::...
 DmFmaj7C
 Dm*
I knew this kid named Max used to get fat stacks on the corner with drugs 
 DmFmaj7C
 Dm*
He liked to hang out late, liked get shit faced, and keep the pace with thugs 
 DmFmaj7C
 Dm*
Late one night there was a big gun fight and max lost his head 
 DmFmaj7CDm*
Pulled out his chrome 45 talked some shit and wound up dead
 DmFmaj7C
 Dm*
Now his wife and his kids are caught in the midst of all of his pain 
 DmFmaj7C
 Dm*
You know it crumbles that way, least thats what they say when you play the game 
 DmFmaj7CDm*
God forbid you ever had to wake up to hear the news
 DmFmaj7CDm*
Then you really might know what it's like to have to lose

...:::Chorus:::...
 DmFmaj7CDm*
Cause then you really might know what it's like
 DmFmaj7CDm*
Cause then you really might know what it's like
 DmFmaj7CDm*
Cause then you really might know what it's like
 DmFmaj7CDm*
Cause then you really might know what it's like... to have to lose

~~~~Song Order~~~~
Intro (4x)
Verse 1
Chorus
Preverse
Verse 2
Chorus
Bridge
Preverse
Verse 3
Outro

END

+--------------------------------------------------------------------------+

| This file is the author's own work and represents their interpretation |
| of the song. You may only use this file for private study, scholarship, |
| or research. |
+--------------------------------------------------------------------------+


Ultimate-Guitar.Com © 2005


C Dm Dsus4 Fmaj7
variations - click chord images
Transpose chords:
Tuning:
Cool service:
View: Size:
A  A  A
Rating:
Layout:
  • Currently 4.3/5 Stars.
  • 1
  • 2
  • 3
  • 4
  • 5
 
Accuracy:
  • Currently 5/5 Stars.
  • 1
  • 2
  • 3
  • 4
  • 5
 
click stars to rate
Chordie recommends:
Learn to play guitar with video-based, online guitar lessons at JamPlay.com
Songbook:
Login to add this song to your songbook
Support the artist
Preview/buy this song
MSN Music
Why this non-profit ad?

 
login to add comments/video/corrections