Guitar Tabs, Chords and Lyrics


Black And Blue    New Found Glory



"Black and Blue" - A New Found Glory
Tabbed by Sean DeLonge

Intro
e|---------------------------------|
B|---------------------------------|
G|---------------------------------|
D|----------6---4----------6--4----|
A|---7---6--4---2---7---6--4--2----|
E|---5---4----------5---4----------|

Verse
e|---------------------------------|
B|---------------------------------|
G|---------------------------------|
D|--------6------------------------|
A|----2---4---7--------------------|
E|----0-------5--------------------|

Chorus
e|---------------------------------|
B|---------------------------------|
G|---------------------------------|
D|-----6---------6-----------------|
A|-----4--2---7--4---2--7--6-------|
E|--------0---5------0--5--4-------|

Post-Chorus
e|---------------------------------|
B|---------------------------------|
G|---------------------------------|
D|---6-----------------------------|
A|---4---2---7---------------------|
E|-------0---5---------------------|

Verse
e|---------------------------------|
B|---------------------------------|
G|---------------------------------|
D|-------6-------------------------|
A|---2---4---7---------------------|


Important: The song above is NOT stored on the Chordie server. The original song is hosted at www.xguitar.com. Chordie works as a search engine and provides on-the-fly formatting. Chordie does not index songs against artists/composers will. To remove this song please click here.

This song is displayed as text-only. Transposing and tuning is only available for chordpro-songs.

Login - add to songbook

Rating click stars to rate

Layout
Accuracy

SHARE PAGE  




You need to log in to post comments