Chordie logo

Key Lime Pie    Afi



-------------------------------------------------------------------------------
                                   KEY LIME PIE - AFI
-------------------------------------------------------------------------------

tabbed by ryanleeper96@hotmail.com

INTRO / VERSE
e-|----------------------------------------------------------------------
B-|----------------------------------------------------------------------
G-|----11-11-11-11-------------------------------------------------------
D-|----11-11-11-11---7--9------------------------------------------------
A-|----9--9--9--9----7--9------------------------------------------------
E-|------------------5--7------------------------------------------------

CHORUS
e-|----------------------------------------------------------------------
B-|----------------------------------------------------------------------
G-|-------11-11------11-11---14--14---13---------------------------------
D-|-------11-11------11-11---14--14---13---------------------------------
A-|-------9--9-------9--9----12--12---11---------------------------------
E-|----------------------------------------------------------------------



Important: The song above is NOT stored on the Chordie server. The original song is hosted at www.xguitar.com. Chordie works as a search engine and provides on-the-fly formatting. Chordie does not index songs against artists/composers will. To remove this song please click here.

This song is displayed as text-only. Transposing and tuning is only available for chordpro-songs.

Login - add to songbook

Rating click stars to rate

Layout
Accuracy

SHARE PAGE  

You need to log in to post comments