Guitar Tabs, Chords and Lyrics


6 to 8    Afi



This is a very easy song to play so it wasen't hard to figure is out.
I think it's 100% correct but you can decide

Tabed by:Akagi
By:Afi
Song:6 to 8

Intro
E--------------------------------
B--------------------------------
G--------------------------------
D--9-99-----5-55-----7-77-7-7-7--
A--0-00--0--0-00--0--0-00--0-0---
E--------------------------------

Than it goes to this
E------------------------------------
B------------------------------------
G----22-2h4p2----22-2h4p2----2-22222-
D----------------------------0-00000-
A--0-----------3---------------------
E------------------------------------
verse
E---------------------------
B---------------------------
G-------5555------7777------
D--7777-5555-5555-7777------
A--7777-3333-5555-5555------
E--5555------3333-----------

chorus
E------------------------------
B------------------------------
G--5555------------------------
D--5555----5-55--2-22222222----
A--3333----5-55--2-22222222----
E----------3-33--0-00000000----
verse
chorus
Than it goes like this
E------------------------------------
B------------------------------------
G----22-2h4p2----22-2h4p2--2-2222222-
D--------------------------0-0000000-
A--0-----------3---------------------
E------------------------------------

After that you can figure is out
sorry I don't know the solo yet but it's coming along


Important: The song above is NOT stored on the Chordie server. The original song is hosted at www.xguitar.com. Chordie works as a search engine and provides on-the-fly formatting. Chordie does not index songs against artists/composers will. To remove this song please click here.

This song is displayed as text-only. Transposing and tuning is only available for chordpro-songs.

Login - add to songbook

Rating click stars to rate

Layout
Accuracy

SHARE PAGE  




You need to log in to post comments