Guitar Tabs, Chords and Lyrics


Accidents    Alexisonfire



Alexisonfire
Little Girls Pointing and Laughing
Self titled album
Tabbed by: Kris McCann


Intro/ Clean
e---0---3---1---7---6---0
b---0---0---0---0---0---0
g---0---0---0---0---0---0 listen to song for strumming       x4
d---2---2---2---5---5---5 patterns and when to change
a---3---3---3---4---4---4
e---0---0---0---3---3---3


---3---0
---3---0
---5---0      again listen for strumming patterns
---5---2     and when changes occur
---3---2
---3---0


------------------------              --------------------------
------------------------              --------------------------
--------7h9-------------     x4       -------------7h9---7h9----   (x4) repeat
---0--------7h9---7h9---              ---0---7h9----------------
---0--------------------              ---0----------------------
---0--------------------              ---0----------------------
   *                                     *


------5*-------          -------------------
--------5*-----          --------5*---------
----------5*---          ------------5*-----
---0-----------    x3    ---0------------5*-    x3
---0-----------          ---0---------------
---0-----------          ---0---------------
   *                        *



Important: The song above is NOT stored on the Chordie server. The original song is hosted at www.xguitar.com. Chordie works as a search engine and provides on-the-fly formatting. Chordie does not index songs against artists'/composers' will. To remove this song please click here.

This song is displayed as text-only. Transposing and tuning is only available for chordpro-songs.

Login - add to songbook

Rating click stars to rate

Layout
Accuracy

SHARE PAGE  




You need to log in to post comments