Guitar Tabs, Chords and Lyrics


Queen of Pain    Alkaline Trio



-------------------------------------------------------------------------------
QUEEN OF PAIN - Alkaline Trio
-------------------------------------------------------------------------------

By:Sean D'Souza (sean.dsouza@worldnet.att.net) AIM: squirtinweasel

This is a song off the Alkaline Trio / Hot Water Music split due out January 22, 2002
on JadeTree Records. JadeTree records is freely distributing the mp3 for this song @
http://www.jadetree.com. I can't wait to hear the rest of the Trio's new tracks and
Hot Water Music's covers of the Trio's Radio and Bleeder. Well I promised on the
forums to tab this gem out so here it is... and in two guitars format as stated! :)
Oh and the number of chord strumming isn't perfect so figure that out yourself...

On to the tab:

Standard Tuning
Distortion On

Intro 2X (Guitar I)
e|------------------------------------------------------------------|
B|------------------------------------------------------------------|
G|---------6-6-6-6-4-4-4-4-3-3-3-3----------6-6-6-6-4-4-4-4-3-3-3-3-|
D|------------------------------------------------------------------|
A|-6-6-6-6-------------------------2-2-2-2--------------------------|
E|------------------------------------------------------------------|

e|------------------------------------------------------------------|
B|------------------------------------------------------------------|
G|---------6-6-6-6-4-4-4-4-3-3-3-3-4444444--------------------------|
D|---------------------------------4444444--------------------------|
A|-6-6-6-6-------------------------2222222--------------------------|
E|------------------------------------------------------------------|

Intro 2X (Guitar II - Listen to Song For Strumming)
e|---------------------------------------------|
B|---------------------------------------------|
G|-8888888-66-4444444-33---------333333-444444-|
D|-8888888-66-4444444-33-6666666-333333-444444-|
A|-6666666-44-2222222-11-6666666-111111-222222-|
E|-----------------------4444444---------------|

Pre-Verse/Pre-Chorus (Guitar I)
e|---------------|
B|---------------|
G|-8888888-66-4--|
D|-8888888-66-4--|
A|-6666666-44-2--|
E|---------------|
*******

*PM = Palm Mute

Verse (Guitar I)
e|------------------------------------------------|
B|------------------------------------------------|
G|-4----------------------------------------------|
D|-4----------------------------------------------|
A|-2->>-4->>-6--6- >-6--6!--6- >-6--6!--6- >-4--4-

Important: The song above is NOT stored on the Chordie server. The original song is hosted at www.xguitar.com. Chordie works as a search engine and provides on-the-fly formatting. Chordie does not index songs against artists'/composers' will. To remove this song please click here.

This song is displayed as text-only. Transposing and tuning is only available for chordpro-songs.

Login - add to songbook

Rating click stars to rate

Layout
Accuracy

SHARE PAGE  




You need to log in to post comments