Chordie logo


Louie, Louie   Black Flag

   [4/4] Gtr I
E E E Q E E E E E E Q E E E E E E Q E E E E E E Q E E E
||-----------------|-------------------|----------------|---------------------||
||o----------------|-------------------|----------------|--------------------o||
||-----------9-9---|-11-11-11----9-9---|----------9-9---|-11-11-11----9-9-----||
||--9-9-9----9-9---|-11-11-11----9-9---|-9-9-9----9-9---|-11-11-11----9-9-----||
||o-9-9-9----7-7---|--9--9--9----7-7---|-9-9-9----7-7---|--9--9--9----7-7----o||
||--7-7-7----------|-------------------|-7-7-7----------|---------------------||



Chorus
    [B5]E E E Q  [E5]E E E   [F5]E  E  E Q  [E5]E E E   [B5]E E E Q  [E5]E E E   [F5]E  E  E Q  [E5]E E E
||-----------------|------------------|----------------|-------------------||
||o----------------|------------------|----------------|------------------o||
||-------------9---|------11------9---|------------9---|------11------9----||
||------9----------|---11-------------|-----9----------|---11--------------||
||o---9------7-----|-9----------7-----|---9------7-----|-9----------7-----o||
||--7--------------|------------------|-7--------------|-------------------||



Verse
  [B5]E E E Q  [E5]E E E   [F5] E  E  E Q  [E5]E E E   [B5]E E E Q  [E5]E E E   [F5] E  E  E Q  [E5]E E E
|----------------|-------------------|----------------|--------------------|
|----------------|-------------------|----------------|--------------------|
|----------9-9---|-11-11-11----9-9---|----------9-9---|-11-11-11----9-9----|
|-9-9-9----9-9---|-11-11-11----9-9---|-9-9-9----9-9---|-11-11-11----9-9----|
|-9-9-9----7-7---|--9--9--9----7-7---|-9-9-9----7-7---|--9--9--9----7-7----|
|-7-7-7----------|-------------------|-7-7-7----------|--------------------|



Guitar Solo
Q H. E E E H +E
|-----------------|------------------------|
|-----------------|------------------------|
|-----8-----------|-11-11-10b10.5-9----(9)-|
|-9--11b12.5------|------------------------|
|-----------------|------------------------|
|-----------------|------------------------|



S S S S S S S S s S s S S S e Q E E E Q.
|------------------------------------------------------------|-------------------|
|-15-15-15-15-12-12-12-12------------------------------------|-------------------|
|-------------------------15-15-15-x-12b12.5-12b12.5-12b12.5-|-------------------|
|------------------------------------------------------------|-12--9-------------|
|------------------------------------------------------------|-------13-12-9-----|
|------------------------------------------------------------|-------------------|



e S E S E S E S S S S S Q H Q
|-------------------------|--------------|
|-------------------------|--------------|
|-------------------------|--------------|
|---------7---9---7---9---|-12--9----9\--|
|-----8-------------------|--------------|
|-8-----------------------|--------------|



Out Chorus
    [B5]E E E Q  [E5]E E E   [F5] E  E  E Q  [E5]E E E
||-----------------|---------------------||
||o----------------|--------------------o||
||-----------9-9---|-11-11-11----9-9-----||
||--9-9-9----9-9---|-11-11-11----9-9-----||
||o-9-9-9----7-7---|--9--9--9----7-7----o||
||--7-7-7----------|---------------------||



Outro (messy)
  [B5]E E E E E E E E   E H    Q.     W
|-----------------|-------------|------*|
|-----------------|-------------|------*|
|-----------------|-------------|------*|
|---9---9-9---9-9-|-9-9----9\---|------*|
|---9---9-9---9-9-|-9-9----9\---|------*|
|---7---7-7---7-7-|-7-7----7\---|------*|


Performance Notes
-----------------

The Solo is VERY basic, Black Flag's sound was very messy and so it was difficult to mke out the

notes, its something like what I've got. Improvise.

Also this Is a 'Kinks' cover.

Duration Legend
---------------
W - whole; H - half; Q - quarter; E - 8th; S - 16th; T - 32nd; X - 64th; a - acciaccatura

+ - note tied to previous; . - note dotted; .. - note double dotted
Uncapitalized letters represent notes that are staccato (1/2 duration)
Irregular groupings are notated above the duration line
Duration letters will always appear directly above the note/fret number it represents the
duration for. Duration letters with no fret number below them represent rests. Multi-
bar rests are notated in the form Wxn, where n is the number of bars to rest for. Low
melody durations appear below the staff

Tablature Legend
----------------

h - hammer-on
p - pull-off
b - bend
pb - pre-bend
r - bend release (if no number after the r, then release immediately)
/\ - slide into or out of (from/to "nowhere")
s - legato slide
S - shift slide
- natural harmonic
(n) - artificial harmonic
n(n) - tapped harmonic
~ - vibrato
tr - trill
T - tap
TP - trem. picking
PM - palm muting
\n/ - tremolo bar dip; n = amount to dip
\n - tremolo bar down
n/ - tremolo bar up
/n\ - tremolo bar inverted dip
= - hold bend; also acts as connecting device for hammers/pulls
<> - volume swell (louder/softer)
x - on rhythm slash represents muted slash
o - on rhythm slash represents single note slash

Misc Legend
-----------

| - bar
|| - double bar
||o - repeat start
o|| - repeat end
*| - double bar (ending)
: - bar (freetime)
$ - Segno
& - Coda
Tempo markers - = BPM(8/16=s8/s16), where s8 = swing 8ths, s16 = swing 16ths

Important: The song above is NOT stored on the Chordie server. The original song is hosted at www.xguitar.com. Chordie works as a search engine and provides on-the-fly formatting. Chordie does not index songs against artists/composers will. To remove this song please click here.

Text color:
Chord color:
Chord grids: 
Font size:    
Page size: 

B5 E5 F5
variations - click chord images

Login - add to songbook

Transpose chords

Tuning

Rating click stars to rate

Layout
Accuracy

SHARE PAGE  




You need to log in to post comments