Guitar Tabs, Chords and Lyrics


Wicked World   Black Sabbath



[#]#                     From The Headless Cross Tab Page                     [#]#
Start Date:
Finished: 5:46 AM 9/17/97
Updated: 05:17 9/18/00
Black Sabbath - Wicked World
From Black Sabbath's "Black Sabbath" Album 1970
Tuning Info: Standard Tuning, 440Hz, 120 beats/min
NOTE: Lyrics and multiple guitar parts may not align due to space
constraints.
(f)
E D E\(B) E D E\(B)
--------------------------------------------------------------------------
-12p10------12p10------------------12p100-------12p10---------------------
------12~-9------12~-9-------------------12~-9-------12~-9----------------
--------------------------------------------------------------------------
-----------------------14-12-14\(9)-------------------------14-12-14\(9)--
-----------------------12-10-12\(7)-------------------------12-10-12\(7)--

E D E\(B) E D E\(B)
--------------------------------------------------------------------------
-12p10------12p10------------------12p100-------12p10---------------------
------12~-9------12~-9-------------------12~-9-------12~-9----------------
--------------------------------------------------------------------------
-----------------------14-12-14\(9)-------------------------14-12-14\(9)--
-----------------------12-10-12\(7)-------------------------12-10-12\(7)--

[A]                           [A]                                                                                    
-----------------------------------------------
-----------------------------------------------
-6-------5-7-7^(9)`7-5-7p5--6------------------
-7-(5/)7------------------7-7------5-7-77p5-7--
-7--------------------------7-(5/)7----------7-
-5--------------------------5------------------

[A]                           [A]                                                                                    
-----------------------------------------------
-----------------------------------------------
-6-------5-7-7^(9)`7-5-7p5--6------------------
-7-(5/)7------------------7-7------5-7-77p5-7--
-7--------------------------7-(5/)7----------7-
-5--------------------------5------------------

A C D A C D A C D E\(C)
-------------------------------------------
-------------------------------------------
-6--9--11---6--9--11---6--9--11--13\(9)----
-7--10-12---7--10-12---7--10-12--14\(10))--
-7--10-12---7--10-12---7--10-12--14\(10))--
-5--8--10---5--8--10---5--8--10--12-(8)----
-------------------------------------------------------------
-------------------------------------------------------------
-------------------------------------------------------------
-------------------------------------------------------------
-(5/)7-5--------(5/)7-5---------(5/)7-5----------------------
-------------------------------------------------------------------
--------------------------------------8~~-----------8~-------------
----------------------------------7/9-----9-99-7-7h9---9-99-7\(4)--
-------5~--------------5~------------------------------------------
-5/7-7----7-77-5--5h7-7---7-77-5-----------------------------------
-------------------------------------------------------------------
------------------------------------------------
------------------------------------------------
------------------------------------------------
-------------------------------------5~---------
---------------------------------5h7---77-77-5--
-0-0-0-0-0-0-0-0-0-0-0-0-0-0-0-0----------------

T[d]he[d] w[d]or[d]ld[d] t[d]od[d]ay[d] i[d]s [d]su[d]ch[d] a[d] w[d]ic[d]ke[d]d place
------------------------------------------------
------------------------------------------------
------------------------------------------------
-------------------------------------5~---------
---------------------------------5h7---77-77-5--
-0-0-0-0-0-0-0-0-0-0-0-0-0-0-0-0----------------

I[d] a[d]in[d]'t[d] g[d]oi[d]n'[d] h[d]om[d]e [d]'t[d]il[d]l [d]ya[d] g[d]im[d]me my raise
------------------------------------------------
------------------------------------------------
------------------------------------------------
-------------------------------------5~---------
---------------------------------5h7---77-77-5--
-0-0-0-0-0-0-0-0-0-0-0-0-0-0-0-0----------------

P[d]eo[d]pl[d]e [d]go[d] t[d]o [d]wo[d]rk[d] j[d]us[d]t [d]to[d] e[d]ar[d]n [d]their bread
------------------------------------------------
------------------------------------------------
------------------------------------------------
-------------------------------------5~---------
---------------------------------5h7---77-77-5--
-0-0-0-0-0-0-0-0-0-0-0-0-0-0-0-0----------------

W[d]hi[d]le[d] p[d]eo[d]pl[d]e [d]ju[d]st[d] a[d]cr[d]os[d]s [d]ya[d] s[d]ee[d] are countin'their dead
-------------------------------------
-------------------------------------
-------------------------------------
-(2)/4--------------6-4--------------
-------7-4~-------------6-5-4-2------
------------7-6-5--------------------
-------------------------------------
------------------------8~-----------
-------------------7/9----9-99-7~----
-------5~----------------------------
-5/7-7----7-77-5---------------------
-------------------------------------
------------------------------------------------
------------------------------------------------
------------------------------------------------
-------------------------------------5~---------
---------------------------------5h7---77-77-5--
-0-0-0-0-0-0-0-0-0-0-0-0-0-0-0-0----------------

[d]A [d]po[d]li[d]ti[d]ci[d]an[d]'s[d] j[d]ob[d] t[d]he[d]y [d]sa[d]y [d]is[d] very high
------------------------------------------------
------------------------------------------------
------------------------------------------------
-------------------------------------5~---------
---------------------------------5h7---77-77-5--
-0-0-0-0-0-0-0-0-0-0-0-0-0-0-0-0----------------

F[d]or[d] h[d]e [d]ha[d]s [d]to[d] c[d]ho[d]os[d]e [d]wh[d]o'[d]s [d]go[d]tt[d]a go and die
------------------------------------------------
------------------------------------------------
------------------------------------------------
-------------------------------------5~---------
---------------------------------5h7---77-77-5--
-0-0-0-0-0-0-0-0-0-0-0-0-0-0-0-0----------------

[d]Th[d]ey[d] c[d]an[d] p[d]ut[d] a[d] m[d]an[d] o[d]n [d]th[d]e [d]mo[d]on[d] quite easy
------------------------------------------------
------------------------------------------------
------------------------------------------------
-------------------------------------5~---------
---------------------------------5h7---77-77-5--
-0-0-0-0-0-0-0-0-0-0-0-0-0-0-0-0----------------

W[d]hi[d]le[d] p[d]eo[d]pl[d]e [d]he[d]re[d] o[d]n [d]ea[d]rt[d]h [d]ar[d]e [d]dying of old diseases
(f>>>>>>p)
-----------------------------------------------
-----------------------------------------------
-----------------------------------------------
-(2)/4--------------6-4------------------------
-------7-4~-------------6-5-4-2----------------

(Distortion off - reverb on)
-----0-----0----0----0----0----0----0------0----0----0----0----0----0----0----
----*--0--*-0--*-0--*-0---*-0--*-0--*-0---*-0--*-0--*-0--*-0--*-0--*-0--*-0---
---*-----*----*----*-----*----*----*-----*----*----*----*----*----*----*------
-7------7----7----9----10----9----7----55----2----0----2----2----2----2-------
------------------------------------------------------------------------------
------------------------------------------------------------------------------
----0----0----0----0----0----0-----0-----0----0----0----0----0----0----0----0-
---*-0--*-0--*-0--*-0--*-0--*-0---*-0--**-0--*-0--*-0--*-0--*-0--*-0--*-0--*-0
--*----*----*----*----*----*-----*----*-----*----*----*----*----*----*----*---
-2----2----2----0----7----9----10----9-----7----5----2----0----2----2----2----
------------------------------------------------------------------------------
------------------------------------------------------------------------------
----0----0----0----0----0----0----0----00----0----0----0----0----0----0----0--
---*-0--*-0--*-0--*-0--*-0--*-2--*-2--*--2--*-2--*-2--*-0--*-0--*-0--*-0--*-0-
--*----*----*----*----*----*----*----*-----*----*----*----*----*----*----*----
-2----2----2----2----2----2----2----2-----2----2----2----2----2----0----7-----
------------------------------------------------------------------------------
------------------------------------------------------------------------------
----0-----0----0----0----0----0----0-----0----0----0----0----0----0----0----0-
---*-0---*-0--*-0--*-0--*-0--*-0--*-0--**-0--*-0--*-0--*-0--*-0--*-0--*-0--*-0
--*-----*----*----*----*----*----*----*-----*----*----*----*----*----*----*---
-9----10----9----7----5----2----0----2-----2----2----2----2----2----2----0----
------------------------------------------------------------------------------
------------------------------------------------------------------------------
----0----0----0----0----0----0----0----00----0----0----0----0----0----0----0--
---*-0--*-0--*-0--*-0--*-0--*-0--*-0--*--0--*-0--*-0--*-0--*-0--*-0--*-0--*-0-
--*----*----*----*----*----*----*----*-----*----*----*----*----*----*----*----
-2----2----2----2----2----2----2----0-----2----2----2----0----2----2----2-----
------------------------------------------------------------------------------
------------------------------------------------------------------------------
----0---0---0---0-----
---*-0---0---0---0----
--*-------------------
-0-----------------2--
----------------------
----------------------

----------------------12--------------------------------------------------
------------------------15p12---------------------------------------------
---------12-14-14^(16)-------14-12-------------------7-7-9-9p7--7-9-9p7---
-(10/)14--------------------------14-14((\10)--(6/)9-----------9--------9-
--------------------------------------------------------------------------
--------------------------------------------------------------------------
-------------------------------------------12-----12----------------------
----------(9)\(6)------------------------12--15p12---15-12-15p12----------
-7-9-9p7-7-9-\(6)----------12-14-14^(16))-----------------------14-12\(8)-
-------------------(10/)14------------------------------------------------
--------------------------------------------------------------------------
--------------------------------------------------------------------------
-----------------------------------------------------------------------------
-------------------------------------------------------------------------12--
-----------------------------------------------------12-14-14p12--14^(16)----
---------12-14-14-14p12--12-14-14p12--122-14-14p12--------------14-----------
-(12/)14---------------14-----------14------------14-------------------------
-----------------------------------------------------------------------------
------------------------------12-15p12h115p12h15p12---------------------
-15p12--12-15^(18)-12-15p12-12---------------------15-12-18~-18-15------
------14----------------------------------------------------------17-14-
------------------------------------------------------------------------
------------------------------------------------------------------------
------------------------------------------------------------------------
-----12-15p12h15p12h15p12-----------------------------------------------------
---12--------------------15-12-18~-12h155p12-14^(16)-12h15p15-12-14^(16)-12---
-14------------------------------------------------------------------------12~
------------------------------------------------------------------------------
------------------------------------------------------------------------------
------------------------------------------------------------------------------
--------------------------------------------------------------------------
-(\10)--------------------------------------8~-------------8~-------------
--------------------------------------7//9-9--9-99-7--7h9-9---9-99-7(\5)--
--------------5~-------------5~-------------------------------------------
------(5/)-7-7--7-77-5-5h7-7---7-77-5-------------------------------------
--------------------------------------------------------------------------
------------------------------------------------
------------------------------------------------
------------------------------------------------
-------------------------------------5~---------
---------------------------------5h7---77-77-5--
-0-0-0-0-0-0-0-0-0-0-0-0-0-0-0-0----------------

[d]A [d]wo[d]ma[d]n [d]go[d]es[d] t[d]o [d]wo[d]rk[d] e[d]ve[d]ry[d] d[d]ay[d] of the day
------------------------------------------------
------------------------------------------------
------------------------------------------------
-------------------------------------5~---------
---------------------------------5h7---77-77-5--
-0-0-0-0-0-0-0-0-0-0-0-0-0-0-0-0----------------

[d]Sh[d]e [d]ju[d]st[d] g[d]oe[d]s [d]to[d] w[d]or[d]k [d]to[d] e[d]ar[d]n [d]her pay
------------------------------------------------
------------------------------------------------
------------------------------------------------
-------------------------------------5~---------
---------------------------------5h7---77-77-5--
-0-0-0-0-0-0-0-0-0-0-0-0-0-0-0-0----------------

[d]Ch[d]il[d]d [d]si[d]tt[d]in[d]' [d]by[d] a[d] f[d]ir[d]e [d]bu[d]t [d]hi[d]s life is harder
------------------------------------------------
------------------------------------------------
------------------------------------------------
-------------------------------------5~---------
---------------------------------5h7---77-77-5--
-0-0-0-0-0-0-0-0-0-0-0-0-0-0-0-0----------------

[d]He[d] d[d]oe[d]sn[d]'t[d] e[d]ve[d]n [d]kn[d]ow[d] w[d]ho[d] i[d]s [d]hi[d]s father
-------------------------------------
-------------------------------------
-------------------------------------
-(2)/4--------------6-4--------------
-------7-4~-------------6-5-4-2------
------------7-6-5--------------------

E D E\(B) E D E\(B)
--------------------------------------------------------------------------
-12p10------12p10------------------12p100-------12p10---------------------
------12~-9------12~-9-------------------12~-9-------12~-9----------------
--------------------------------------------------------------------------
-----------------------14-12-14\(9)-------------------------14-12-14\(9)--
-----------------------12-10-12\(7)-------------------------12-10-12\(7)--

E D E\(B) E D E\(B)
--------------------------------------------------------------------------
-12p10------12p10------------------12p100-------12p10---------------------
------12~-9------12~-9-------------------12~-9-------12~-9----------------
--------------------------------------------------------------------------
-----------------------14-12-14\(9)-------------------------14-12-14\(9)--
-----------------------12-10-12\(7)-------------------------12-10-12\(7)--

[A]                           [A]                                                                                   
-----------------------------------------------
-----------------------------------------------
-6-------5-7-7^(9)`7-5-7p5--6------------------
-7-(5/)7------------------7-7------5-7-77p5-7--
-7--------------------------7-(5/)7----------7-
-5--------------------------5------------------

[A]                           [A]                                                                                   
-----------------------------------------------
-----------------------------------------------
-6-------5-7-7^(9)`7-5-7p5--6------------------
-7-(5/)7------------------7-7------5-7-77p5-7--
-7--------------------------7-(5/)7----------7-
-5--------------------------5------------------

[A]   [C]   [D]     [A]   [C]   [D]     [A]   [C]   [D]                                                                                      
-------------------------------------------------
-------------------------------------------------
-6--9--11---6--9--11---6--9----------------------
-7--10-12---7--10-12---7--10-------------0-------
-7--10-12---7--10-12---7--10---------------------


Important: The song above is NOT stored on the Chordie server. The original song is hosted at www.xguitar.com. Chordie works as a search engine and provides on-the-fly formatting. Chordie does not index songs against artists'/composers' will. To remove this song please click here.

Text color:
Chord color:
Chord grids: 
Font size:    
Page size: 

A C D
variations - click chord images

Login - add to songbook

Transpose chords

Tuning

Rating click stars to rate

Layout
Accuracy

SHARE PAGE  




You need to log in to post comments