Guitar Tabs, Chords and Lyrics


N.I.B.    Black Sabbath



Gtr I (E A D G B E) - 'Toni Iommi - dist electric'
Gtr II (E A D G B E) - 'Toni Iommi - dist electric'

 Bass Intro

 4/4
  Gtrs I, II

|-------------||--------||
|-------------||--------||
|-------------||--------||
|-------------||--------||
|-------------||--------||
|-------------||--------||


   Pre-Verse

    $
    $$
    Gtrs I, II
                                               ~

||--------------------|---------------------------|--------------------|
||o-------------------|-----------10b12==(10)r-8--|--------------------|
||--------------------|---------------------------|--------------------|
||--9-9-7-9---12-11---|-9-9-7-9-------------------|-9-9-7-9---12-11----|
||o-7-7-5-7---10--9---|-7-7-5-7-------------------|-7-7-5-7---10--9----|
||--------------------|---------------------------|--------------------|
 |-Rhy Fig 1

                       Verse

|--------------------||-------------------|-----------7-----7\-------|
|--------------------||-------------------|-----------8b8.5-8b8.5\---|
|--------------------||-------------------|--------------------------|
|-9-9-7-9------7tr9--||-9-9-7-9---12-11---|-9-9-7-9------------------|
|-7-7-5-7---/7-------||-7-7-5-7---10--9---|-7-7-5-7------------------|
|--------------------||-------------------|--------------------------|
       end Rhy Fig 1-||-Rhy Fig 2


|-------------------|--------------------|-------------------|
|-------------------|--------------------|-------------------|
|-------------------|--------------------|-------------------|
|-9-9-7-9---12-11---|-9-9-7-9------7tr9--|-9-9-7-9---12-11---|
|-7-7-5-7---10--9---|-7-7-5-7---/7-------|-7-7-5-7---10--9---|
|-------------------|--------------------|-------------------|



|-----------7-----7\-------|-------------------|--------------||
|-----------8b8.5-8b8.5\---|-------------------|--------------||
|--------------------------|-------------------|--------------||
|-9-9-7-9------------------|-9-9-7-9---12-11---|-9-9-7-9------||
|-7-7-5-7------------------|-7-7-5-7---10--9---|-7-7-5-7------||
|--------------------------|-------------------|--------------||
                                                end Rhy Fig 2-|

 Interlude
  1.,D.S.

|-------------------|-------------------|-------------------|
|-------------------|-------------------|-------------------|
|-------------------|-------------------|-------------------|
|------5-7-7p5------|------5-7-7p5------|------5-7-7p5------|
|-5h7----------7-7--|-5h7----------7-7--|-5h7----------7-7--|
|-------------------|-------------------|-------------------|


                                            To Coda

|----------7-------------7-------------7----(7)/----||
|-10b12==(10)r--10b12==(10)r--10b12==(10)r---------o||
|---------------------------------------------------||
|---------------------------------------------------||
|--------------------------------------------------o||
|---------------------------------------------------||


 Bridge
  2.,D.S.S.

|---------------|--------------|
|---------------|--------------|
|---------------|--------------|
|--9----(9)---9-|-7----(7)---7-|
|--7----(7)---7-|-5----(5)---5-|
|---------------|--------------|



|--------------|--------------|--------------|
|--------------|--------------|--------------|
|--------------|--------------|--------------|
|-5----(5)---5-|-4----(4)---4-|-9----(9)---9-|
|-3----(3)---3-|-2----(2)---2-|-7----(7)---7-|
|--------------|--------------|--------------|



|--------------|--------------|--------------|--------------|
|--------------|--------------|--------------|--------------|
|--------------|--------------|--------------|--------------|
|-7----(7)---7-|-5----(5)---5-|-4----(4)---4-|-5----(5)---5-|
|-5----(5)---5-|-3----(3)---3-|-2----(2)---2-|-3----(3)---3-|
|--------------|--------------|--------------|--------------|


                                                       D.S. al Coda
                                                       D.S.S. al Double Coda

|--------------|--------------|----------|------------||
|--------------|--------------|----------|------------||
|--------------|--------------|----------|------------||
|-4----(4)---4-|-5----(5)---5-|-4--------|-(4)--------||
|-2----(2)---2-|-3----(3)---3-|-2--------|-(2)--------||
|--------------|--------------|----------|------------||


 Guitar Solo
  &
    |-3-|     |-3-|

|-------------------------|---------------|-------------------------------|
|-------------------------|---------------|-------------------------------|
|-------------------------|---4-4--4s7-7--|-7h9-9---9b11==(9)r-9b11==(9)r-|
|-5-4h5p4---5-4h5p4---4s5-|-7-------------|-------------------------------|
|---------7---------7-----|---------------|-------------------------------|
|-------------------------|---------------|-------------------------------|


  Gtr I
                      ~

|--------------------------|----------------------------------------------------|
|--------------------------|------------------8---10p=8--------------8-------10-|
|-9b11==(9)r==(9)-7h9p7--7-|-/9-9-/9-9-(9)--------------9-----------------------|
|--------------------------|----------------------------------------------------|
|--------------------------|----------------------------------------------------|
|--------------------------|----------------------------------------------------|
|
| Gtr II
|                     ~
|
|--------------------------|----------------------------------------------------|
|--------------------------|--------------------------------10b12==(10)r(10)p=8-|
|-9b11==(9)r==(9)-7h9p7--7-|-/9-9-/9-9--9--9-/9-9--9-/9-9-9---------------------|
|--------------------------|----------------------------------------------------|
|--------------------------|----------------------------------------------------|
|--------------------------|----------------------------------------------------|



|---------------------------------------------------|
|-10b12==(10)r(10)p8-10----10b12==(10)r(10)p8-10-8--|
|------------------------9--------------------------|
|---------------------------------------------------|
|---------------------------------------------------|
|---------------------------------------------------|
|
|
|---------------------------------------------------|
|---------10----------8-10-10b12==(10)r(10)p8-10----|
|------------------9-----------------------------9--|
|---------------------------------------------------|
|---------------------------------------------------|
|---------------------------------------------------|



|----------------------------------------------------|
|-10b12==(10)r(10)p8-10-8-10b12==(10)r--10b12==(10)--|
|----------------------------------------------------|
|----------------------------------------------------|
|----------------------------------------------------|
|----------------------------------------------------|
|
|
|----------------------------------------------------|
|-10b12==(10)r(10)p8-10-8-10b12==(10)r--10b12==(10)--|
|----------------------------------------------------|
|----------------------------------------------------|
|----------------------------------------------------|
|----------------------------------------------------|


                                       |-3-|

|--------------------------------|----------------------|
|-(10)r(10)-10p8h10-8--(8)s15----|----------------------|
|--------------------------------|-------------------4--|
|--------------------------------|---5-4h5p4---4h5h7----|
|--------------------------------|-----------7----------|
|--------------------------------|----------------------|
|
|                                      |-3-|
|
|--------------------------------|----------------------|
|-(10)r(10)-10p8----8---8s====12-|----------------------|
|-----------------9--------------|-------------------4--|
|--------------------------------|---5-4h5p4---4h5h7----|
|--------------------------------|-----------7----------|
|--------------------------------|----------------------|


  Gtrs I, II
  ~

|---------------|------------------------------|
|---------------|------------------------------|
|-4--4s7-7s9-9--|-9s12-12--12h14-14b16==(14)r--|
|---------------|------------------------------|
|---------------|------------------------------|
|---------------|------------------------------|



|-----12-12-------------------------|
|-12--------15b17==(15)r(15)-15-12--|
|-----------------------------------|
|-----------------------------------|
|-----------------------------------|
|-----------------------------------|


  Gtr I

|-15p12----15p12----15p12----15p12-15b17==(15)r--|
|-------12-------12-------12---------------------|
|------------------------------------------------|
|------------------------------------------------|
|------------------------------------------------|
|------------------------------------------------|
|
| Gtr II
|
|-15p12----15p12----15p12----15p12-15b17==(15)r--|
|-------12-------12-------12---------------------|
|------------------------------------------------|
|------------------------------------------------|
|------------------------------------------------|
|------------------------------------------------|


      |--3--|

|-15-12h15p12----12-----------------------------12--|
|-------------15----15p12---------------------------|
|-------------------------14b15========(14)r--------|
|---------------------------------------------------|
|---------------------------------------------------|
|---------------------------------------------------|
|
|     |--3--|
|
|-15-12h15p12----12--------------------------12-----|
|-------------15----15p12---------------12------15--|
|-------------------------14b15==(14)r--------------|
|---------------------------------------------------|
|---------------------------------------------------|
|---------------------------------------------------|



|---------------12-------------------------------------------------|
|-15b17==(15)r-----15p12----12----15-------------------------------|
|------------------------15-------------14b16==(14)r-14b16==(14)r--|
|------------------------------------------------------------------|
|------------------------------------------------------------------|
|------------------------------------------------------------------|
|
|                                                             ~~~~~
|                            |---3----|
|
|---------------12----------12-------------------------------------|
|-15b17==(15)r-----15p12-------15p===12----------------------------|
|------------------------15-------------14b16==(14)r---------12----|
|------------------------------------------------------------------|
|------------------------------------------------------------------|
|------------------------------------------------------------------|


         |--3--|
                                                                    D.S.S. al Dbl. Coda
|-----------------------------------------------------------------||
|-----------------------------------------------------------------||
|-14----12h14p12-----------------12-14b16==(14)r(14)p12-----------||
|------------------------14---------------------------------------||
|-----------------------------------------------------------------||
|-----------------------------------------------------------------||
|
|                                            ~~~~~~~~~~~~~~~~
|
|-----------------------------------------------------------------||
|-----------------------------------------------------------------||
|-------12-------14b16==(14)-14r------------12----------(12)------||
|-12h14------------------------------------------------------14---||
|-----------------------------------------------------------------||
|-----------------------------------------------------------------||


 Interlude
  &&
  Gtrs I, II
  Rhy Fig 1

 Verse
 Rhy Fig 2


 Outro - Guitar Solo

|-------------------|-------------------|-------------------|
|-------------------|-------------------|-------------------|
|-------------------|-------------------|-------------------|
|------5-7-7p5------|------5-7-7p5------|------5-7-7p5------|
|-5h7----------7-7--|-5h7----------7-7--|-5h7----------7-7--|
|-------------------|-------------------|-------------------|


                                           |-3-|     |-3-|

|----------7-------------7------(7)/---|-------------------------|
|-10b12==(10)r--10b12==(10)r-----------|-------------------------|
|--------------------------------------|-------------------------|
|--------------------------------------|-5-4h5p4---5-4h5p4---4s5-|
|--------------------------------------|---------7---------7-----|
|--------------------------------------|-------------------------|


                                                                       ~

|---------------|--------------------------------|--------------------------|
|---------------|--------------------------------|--------------------------|
|---4-4--4s7-7--|-7h9-9----9b11==(9)r-9b11==(9)r-|-9b11==(9)r==(9)-7h9p7--7-|
|-7-------------|--------------------------------|--------------------------|
|---------------|--------------------------------|--------------------------|
|---------------|--------------------------------|--------------------------|


  Gtr I

|-----------------------------10b12==(10)r-----|
|----------------------------------------------|
|-/9-9-9-/9-9-9-/9-9-9-/9-9-9------------------|
|----------------------------------------------|
|----------------------------------------------|
|----------------------------------------------|
|
| Gtr II
|
|-----------------------------10b12==(10)r(10)-|
|----------------------------------------------|
|-/9-9-9-/9-9-9-/9-9-9-/9-9-9------------------|
|----------------------------------------------|
|----------------------------------------------|
|----------------------------------------------|



|--------------------------------------------------------------|
|-10b12==(10)r--8---------10p===8-----8-10-10b12==(10)r(10)p=8-|
|----------------------------------9---------------------------|
|--------------------------------------------------------------|
|--------------------------------------------------------------|
|--------------------------------------------------------------|
|
|
|--------------10----------------------------------------------|
|-10b12==(10)r----10b12==(10)r(10)p8-10-------------8-------10-|
|----------------------------------------9---------------------|
|--------------------------------------------------------------|
|--------------------------------------------------------------|
|--------------------------------------------------------------|



|--------------------------------------------------------|
|---------10----------8-10-10b12==(10)r--10b12==(10)-----|
|------------------9-------------------------------------|
|--------------------------------------------------------|
|--------------------------------------------------------|
|--------------------------------------------------------|
|
|
|--------------------------------------------------------|
|-10b12==(10)r(10)p8-10----10b12==(10)r--10b12==(10)r----|
|------------------------9-------------------------------|
|--------------------------------------------------------|
|--------------------------------------------------------|
|--------------------------------------------------------|


                                       ~~~~~

|----------------------------------------------------------------12-|
|--------(10)r(10)-10p==8h=10----------8----------------------12----|
|------------------------------------------------14b16==(14)r-------|
|-------------------------------------------------------------------|
|-------------------------------------------------------------------|
|-------------------------------------------------------------------|
|
|
|---------------------------------------------12-----------------12-|
|------------------------------------------12-----------------12----|
|-10b12==(10)------10r(10)----14b16==(14)r-------14b16==(14)r-------|
|-------------------------------------------------------------------|
|-------------------------------------------------------------------|
|-------------------------------------------------------------------|

            ~~~~~

|---------------------15b17==(15)r-15-15p12--------------------|
|-15b17==(15)r--15-12-----------------------15b17=====(15)r----|
|--------------------------------------------------------------|
|--------------------------------------------------------------|
|--------------------------------------------------------------|
|--------------------------------------------------------------|
|
|          ~~~~~
|                                            |-------3-------|
|
|---------------------15b17==(15)r----15----12h====15p======12-|
|-15b17==(15)r--15-12------------------------------------------|
|--------------------------------------------------------------|
|--------------------------------------------------------------|
|--------------------------------------------------------------|
|--------------------------------------------------------------|



|-12----------------------------------------------------------------------|
|-------15------------12------12----15b17==(15)r-15----15b17==(15)r----15-|
|--------------------------14---------------------------------------------|
|-------------------------------------------------------------------------|
|-------------------------------------------------------------------------|
|-------------------------------------------------------------------------|
|
|                                            ~~~~~
|
|----12-----------------------12-----------------12--------------------12-|
|-15----15-12--------------12----15-15b17==(15)r----15---------12---------|
|-------------14b16==(14)r------------------------------------------14----|
|-------------------------------------------------------------------------|
|-------------------------------------------------------------------------|
|-------------------------------------------------------------------------|


          |--3---|

|----------------------------------------------------------------------------------|
|--------12h=14p12-----------------------------------------------------------------|
|------------------14-------14b16==(14)r=(14)-12----14-------12---------14------12-|
|----------------------------------------------------------------------------------|
|----------------------------------------------------------------------------------|
|----------------------------------------------------------------------------------|
|
|                   |--3--|                          |--3--|
|
|-------------------------------------------------------------------------------12-|
|-15b17==15r-------12h14p12---------------12---------------------------------12----|
|---------------------------14b16==(14)r------14-12-14p12----12-14b16==(14)r-------|
|---------------------------------------------------------14-----------------------|
|----------------------------------------------------------------------------------|
|----------------------------------------------------------------------------------|



|-------------------------------------------------------------------------|
|---------------------------------------------------------------------12--|
|-14b16==(14)r--14b16==(14)r----14b16==(14)r========(14)------------------|
|-------------------------------------------------------------------------|
|-------------------------------------------------------------------------|
|-------------------------------------------------------------------------|
|
|          ~~~~~
|
|-------------------------------------------------------------------------|
|-15b17==(15)r----------15---12---------------------------------------12--|
|---------------------------------------14pb16r(14)p=12--14b16==(14)r-----|
|-------------------------------------------------------------------------|
|-------------------------------------------------------------------------|
|-------------------------------------------------------------------------|


  Gtrs I, II

|-15p12----15p12----15p12----15p12----15p12----15p|
|-------12-------12-------12-------12-------12----|
|-------------------------------------------------|
|-------------------------------------------------|
|-------------------------------------------------|
|-------------------------------------------------|



|-12----15p12----15p12----15p12----15p12----15p12-|
|----12-------12-------12-------12-------12-------|
|-------------------------------------------------|
|-------------------------------------------------|
|-------------------------------------------------|
|-------------------------------------------------|


|----15p12----15p12----15p12----15p12----15p12--|
|-12-------12-------12-------12-------12--------|
|-----------------------------------------------|
|-----------------------------------------------|
|-----------------------------------------------|
|-----------------------------------------------|

  Gtr I
                     |--3--|

|-15b17=(15)r-15----12h15p12----12---------------------------------------------------15b17=(15)r--------15----:
|----------------------------15----15p12--------------------12-15b17=(15)r===(15)p12--------------------------:
|----------------------------------------14b16=(14)r----------------------------------------------------------:
|-------------------------------------------------------------------------------------------------------------:
|-------------------------------------------------------------------------------------------------------------:
|-------------------------------------------------------------------------------------------------------------:
|
| Gtr I
|              |---3----|                                                                             |---3--|
|
|-15b17=(15)r-15p12----------12------------------------------------------------------15b17=(15)r-15-12h15p=12-:
|----------------------15----------------------------15b17=(15)------(15)r-15-12------------------------------:
|----------------------------------14p=========12-------------------------------------------------------------:
|-------------------------------------------------------------------------------------------------------------:
|-------------------------------------------------------------------------------------------------------------:
|-------------------------------------------------------------------------------------------------------------:



|-12h15p12------------------------------------------------------------------------------------:
|----------15----14p===========12-------------------------------------------------------------:
|-----------------------------------14-12-14b16==(14)r----------------------------------------:
|---------------------------------------------------------------------------------------------:
|---------------------------------------------------------------------------------------------:
|---------------------------------------------------------------------------------------------:
|
|           |---3----|
|
|-------12------------------------------------------------------------------------------------:
|-15-------14p12-----------------------15--------------14p12----------------------------------:
|-------------------14-14b16==(14)r--------------------------14b16==(14)r-14b17==(14)r=(14)p==:
|---------------------------------------------------------------------------------------------:
|---------------------------------------------------------------------------------------------:
|---------------------------------------------------------------------------------------------:



|-------------:-----------------:
|-------------:-----------------:
|-------------:-----------------:
|-------------:-9---------------:
|-------------:-7---------------:
|-------------:-----------------:
|
|
|-------------:-----------------:
|-------------:-----------------:
|-12----------:-----------------:
|-------------:-9---------12h14-:
|-------------:-7---------------:
|-------------:-----------------:




|--------------------------------------------------:------------:-------------*|
|--------------------------------------------------:------------:-------------*|
|--------------------------------------------------:------------:-------------*|
|-(9)----------------------------------------------:-(9)--------:----9\-------*|
|-(7)----------------------------------------------:-(7)--------:----7\-------*|
|--------------------------------------------------:------------:-------------*|
|
|                              |---3----|  |--3--|
|
|--------------------------------------------------:------------:-------------*|
|--------------------------------------------------:------------:-------------*|
|-12--14-14pb16r(14)-12-14-12-12-------------------:------------:-------------*|
|--------------------------------14-12h14-12-------:------------:----9\-------*|
|--------------------------------------------14-12s:=11---------:----7\-------*|
|--------------------------------------------------:------------:-------------*|



Important: The song above is NOT stored on the Chordie server. The original song is hosted at www.xguitar.com. Chordie works as a search engine and provides on-the-fly formatting. Chordie does not index songs against artists'/composers' will. To remove this song please click here.

This song is displayed as text-only. Transposing and tuning is only available for chordpro-songs.

Login - add to songbook

Rating click stars to rate

Layout
Accuracy

SHARE PAGE  




You need to log in to post comments