Guitar Tabs, Chords and Lyrics


Voodoo    Black Sabbath











Start Date:   09:34 7/25/01
Finished:     13:27 7/25/01
UPDATED - 

Black Sabbath - Voodoo

From Black Sabbath's Mob Rules - 1981


Lyrics written here may not align with the tab due to space
constraints.

[f]
-------------------------------------------------------------------------
-------------------------------------------------------------------------
----5----------5--7\(3)--5p0--7--5-2------5----------5--7(\3)--5---2-2---
-0h5-(5)-------5--7\(3)-----x-7--5-2--0hh5-x---------5--7(\3)--5---2-2---
------0--0--0--0------------0---------------0--0--0--0-------------------
-------------------------------------------------------------------------
(Guitar only)

-------------------------------------------------------------------------
-------------------------------------------------------------------------
----5----------5--7\(3)--5p0--7--5-2------5----------5--7(\3)--5---2-2---
-0h5-x---------5--7\(3)-----x-7--5-2--0hh5-----------5--7(\3)--5---2-2---
------0--0--0--0------------0---------------0--0--0--0-------------------
-------------------------------------------------------------------------
(Drums and Bass)

-------------------------------------------------------------------------
-------------------------------------------------------------------------
----5----------5--7\(3)--5p0--7--5-2------5----------5--7(\3)--5---2-2---
-0h5-x---------5--7\(3)-----x-7--5-2--0hh5-----------5--7(\3)--5---2-2---
------0--0--0--0------------0---------------0--0--0--0-------------------
-------------------------------------------------------------------------
 Say you don't love me, you'll burn.  You can refuse, but you'll lose, it's by me

--------------------------------------------------------------------------
--------------------------------------------------------------------------
----5----------5--7\(3)--5p0--7--5-2------5----------5--7(\3)--5---2-2--2-
-0h5-x---------5--7\(3)-----x-7--5-2--0hh5-----------5--7(\3)--5---2-2--2-
------0--0--0--0------------0---------------0--0--0--0--------------------
--------------------------------------------------------------------------
 Say you don't want me, you'll learn.  Nothing you do will be new, 'cause I'm through
---------------------
---------------------
-7-7-----7-7---------
-7-7-----7-7---------
---------------------
-----3~~-------3~~---
                Ahhhh

--------------------------------------------------------------------
--------------------------------------------------------------------
----------5--7\(3)--5p0--7--5-2-----5-----------5--7(\3)--5---2-2---
----------5--7\(3)-----x-7--5-2--0h5------------5--7(\3)--5---2-2---
-0--0--0--0------------0--------------0---0--0--0-------------------
--------------------------------------------------------------------

-------------------------------------------------------------------------
-------------------------------------------------------------------------
----5----------5--7\(3)--5p0--7--5-2------5----------5--7(\3)--5---2-2---
-0h5-x---------5--7\(3)-----x-7--5-2--0hh5-----------5--7(\3)--5---2-2---
------0--0--0--0------------0---------------0--0--0--0-------------------
-------------------------------------------------------------------------
 Call me a liar, you knew.  You were a fool, that's cool, it's alright!

-------------------------------------------------------------------------
-------------------------------------------------------------------------
----5----------5--7\(3)--5p0--7--5-2------5----------5--7(\3)--5---2-2---
-0h5-x---------5--7\(3)-----x-7--5-2--0hh5-----------5--7(\3)--5---2-2---
------0--0--0--0------------0---------------0--0--0--0-------------------
-------------------------------------------------------------------------
 Call me the devil, it's true.  Some can't accept, but I crept inside you!

CHOURSE

----------------------------------------------------------------------------------------
----------------------------------------------------------------------------------------
-5-----2---2-2-2-2-2-2-2-2-2-2-(x-x)--5-------2---2-2-2-2-2-2-2-2-2-2-(x-x)--5-(x-x)-2--
-5-----2---2-2-2-2-2-2-2-2-2-2-(x-x)--5-------2---2-2-2-2-2-2-2-2-2-2-(x-x)--5-(x-x)-2--
-----------0-0-0-0-0-0-0-0-0-0-(x-x)--5-----------0-0-0-0-0-0-0-0-0-0-(x-x)----(x-x)-0--
--3^(4)----------------------------------3^(4)------------------------------------------
 So if a stranger calls you, don't let him whisper your name, 'cause it's Voodoo.....

--------------------
--------------------
--------------------
--------------------
--------------------
-(22 s>>>>>>> 5)----
 (slow pick scrape with chourse)
    ...........oooo, Oh!

--------------------------------------------------------------------
--------------------------------------------------------------------
----------5--7\(3)--5p0--7--5-2-----5-----------5--7(\3)--5---2-2---
----------5--7\(3)-----x-7--5-2--0h5------------5--7(\3)--5---2-2---
-0--0--0--0------------0--------------0---0--0--0-------------------
--------------------------------------------------------------------

--------------------------------------------------------------------------
--------------------------------------------------------------------------
----5----------5--7\(3)--5p0--7--5-2------5----------5--7(\3)--5---2-2-2--
-0h5-x---------5--7\(3)-----x-7--5-2--0hh5-----------5--7(\3)--5---2-2-2--
------0--0--0--0------------0---------------0--0--0--0--------------------
--------------------------------------------------------------------------

-------------------------------------------------------------------------
-------------------------------------------------------------------------
----5----------5--7\(3)--5p0--7--5-2------5----------5--7(\3)--5---2-2---
-0h5-x---------5--7\(3)-----x-7--5-2--0hh5-----------5--7(\3)--5---2-2---
------0--0--0--0------------0---------------0--0--0--0-------------------
-------------------------------------------------------------------------
 Fade into shadow, you'll burn.  Your fortune is free, I can see it's no good

--------------------------------------------------------------------------
--------------------------------------------------------------------------
----5----------5--7\(3)--5p0--7--5-2------5----------5--7(\3)--5---2-2-2--
-0h5-x---------5--7\(3)-----x-7--5-2--0hh5-----------5--7(\3)--5---2-2-2--
------0--0--0--0------------0---------------0--0--0--0--------------------
--------------------------------------------------------------------------
 Never look back, never turn.   It's a question of time 'till you're mine and you learn

CHOURSE

----------------------------------------------------------------------------------------
-5--------------------------------------------------------------------------------------
-5-----2---2-2-2-2-2-2-2-2-2-2-(x-x)--5-------2---2-2-2-2-2-2-2-2-2-2-(x-x)--5-(x-x)-2--
-5-----2---2-2-2-2-2-2-2-2-2-2-(x-x)--5-------2---2-2-2-2-2-2-2-2-2-2-(x-x)--5-(x-x)-2--
-----------0-0-0-0-0-0-0-0-0-0-(x-x)--5-----------0-0-0-0-0-0-0-0-0-0-(x-x)----(x-x)-0--
--3^(4)----------------------------------3^(4)------------------------------------------
 So if a stranger sees you,           don't look in his eyes, 'cause he's Voodoo.....

--------------------
--------------------
--------------------
--------------------
--------------------
-(22 s>>>>>>> 5)----
 (slow pick scrape with chourse)
    ...........oooo, Oooooh!

LEAD (2:16)
                                                                                    2:25
------------------------------------------------------------------------------------------
------------------------------------------------------------------------------------------
-----7-----7------7-7-----7-7-5~~--------(5h7 tr~~)---------------------------------------
-----7-----7------7-7-----7-7-5~~/(12)-------------(5h7 tr~~)-----------------------------
-0-0---0-0---0-0------0-0------------------------------------(5h7 tr~~)-(3h5 tr~~)--------
----------------------------------------------------------------------------------5^(6)\1-
(Guitar 1)

-------------------------------------------------------------------------
-------------------------------------------------------------------------
----5----------5--7\(3)--5p0--7--5-2------5----------5--7(\3)--5---2-2---
-0h5-x---------5--7\(3)-----x-7--5-2--0hh5-----------5--7(\3)--5---2-2---
------0--0--0--0------------0---------------0--0--0--0-------------------
-------------------------------------------------------------------------
(Guitar 2)

                                                              2:31
-5h8p5--------------------------------------------------------------
------8-5h8p5-------------------------------------------------------
-------------7-5h7p5------------------------(5h7 tr~~)-5-7^(9s`7)---
--------------------7-5h7p5-----5h7-7p5--5h7----------7-------------
---------------------------7-5h7-------77---------------------------
--------------------------------------------------------------------
(Guitar 1)

-------------------------------------------------------------------------
-------------------------------------------------------------------------
----5----------5--7\(3)--5p0--7--5-2------5----------5--7(\3)--5---2-2---
-0h5-x---------5--7\(3)-----x-7--5-2--0hh5-----------5--7(\3)--5---2-2---
------0--0--0--0------------0---------------0--0--0--0-------------------
-------------------------------------------------------------------------
(Guitar 2)
                                   2:36
---------------------------------------
-8p5\4---------------------------------
------5-8p5\4---5------5--5------------
-------------5-5-7-5--5-7-5------------
----------------------------7p5-3------
---------------------------------5~~---
(Guitar 1)

-------------------------------------------------------------------------
-------------------------------------------------------------------------
----5----------5--7\(3)--5p0--7--5-2------5----------5--7(\3)--5---2-2---
-0h5-x---------5--7\(3)-----x-7--5-2--0hh5-----------5--7(\3)--5---2-2---
------0--0--0--0------------0---------------0--0--0--0-------------------
-------------------------------------------------------------------------
(Guitar 2)
                                                            2:40
------------------------------------------------------------------
-------------------------------------------(5h8 tr~~)-------------
----5--------------5h4-------------------------------5p8----------
-0h5--7~-(x-x)-5-7~----5-5-7~-5-(5h7 tr~~~)-------------7-7\(3)---
------------------------------------------------------------------
------------------------------------------------------------------
(Guitar 1)

-------------------------------------------------------------------------
-------------------------------------------------------------------------
----5----------5--7\(3)--5p0--7--5-2------5----------5--7(\3)--5---2-2---
-0h5-x---------5--7\(3)-----x-7--5-2--0hh5-----------5--7(\3)--5---2-2---
------0--0--0--0------------0---------------0--0--0--0-------------------
-------------------------------------------------------------------------
(Guitar 2)

                                   2:44
--------------------------------------------
----------8---8p5-5-------------------------
-7s^(9s`7)-------7--5-7p5-5-----------------
-------------------------7--7p5-------------
-------------------------------7-5----------
----------------------------------5-5~~-----
(Guitar 1)
                                                                         2:50
-5h8p5-------------------------------------------------------------------------
------8-5h8p5--------7\(3)--------7---------13-15^(17`15)-17p15h17p15--15-17---
-------------7-5h7p5-7\(3)-7^(9`7)---(9))/14-------------------------14--------
-------------------------------------------------------------------------------
-------------------------------------------------------------------------------
-------------------------------------------------------------------------------
(Guitar 1)

                                                               3:00
----------------------------------------------------------------------
-(5h8 tr~~)-----------------------------------------------------------
-----------(5h7 tr~~)-7^(9s`7)-5h7-5-------5------2-------------------
------------------------------------7~~~~--5------2-------------------
--------------------------------------------------0-------------------
---------------------------------------------3^(4)--(22 s>>>>>>> 5)---

-----------------------------------------------------------------------------
-----------------------------------------------------------------------------
--------------------------------------------5-----2--------------------------
--------------------------------------------5-----2--------------------------
---------------------------------------------3^(4)---------------------------
(Guitar 2)

--------------------------------------------------------------------
--------------------------------------------------------------------
----------5--7\(3)--5p0--7--5-2-----5-----------5--7(\3)--5---2-2---
----------5--7\(3)-----x-7--5-2--0h5------------5--7(\3)--5---2-2---
-0--0--0--0------------0--------------0---0--0--0-------------------
--------------------------------------------------------------------
 Say you don't love me, you'll burn.  You can refuse but you'll loose, it's by me

--------------------------------------------------------------------------
--------------------------------------------------------------------------
----5----------5--7\(3)--5p0--7--5-2------5----------5--7(\3)--5---2-2-2--
-0h5-x---------5--7\(3)-----x-7--5-2--0hh5-----------5--7(\3)--5---2-2-2--
------0--0--0--0------------0---------------0--0--0--0--------------------
--------------------------------------------------------------------------
 Say you don't want me, you'll learn.  Nothing you do will will be new, 'cause I'm through

--------------------
--------------------
-7-7-----7-7--------
-7-7-----7-7--------
--------------------
----3~~-------3~~---
              Voodoo.....

--------------------------------------------------------------------
--------------------------------------------------------------------
----------5--7\(3)--5p0--7--5-2-----5-----------5--7(\3)--5---2-2---
----------5--7\(3)-----x-7--5-2--0h5------------5--7(\3)--5---2-2---
-0--0--0--0------------0--------------0---0--0--0-------------------
--------------------------------------------------------------------
#cutline#
.....oooooo                                                Right!

-------------------------------------------------------------------------
-------------------------------------------------------------------------
----5----------5--7\(3)--5p0--7--5-2------5----------5--7(\3)--5---2-2---
-0h5-x---------5--7\(3)-----x-7--5-2--0hh5-----------5--7(\3)--5---2-2---
------0--0--0--0------------0---------------0--0--0--0-------------------
-------------------------------------------------------------------------
 Bring me a killer, he'll burn, never look back, never turn

-------------------------------------------------------------------------
-------------------------------------------------------------------------
----5----------5--7\(3)--5p0--7--5-2------5----------5--7(\3)--5---2-2---
-0h5-x---------5--7\(3)-----x-7--5-2--0hh5-----------5--7(\3)--5---2-2---
------0--0--0--0------------0---------------0--0--0--0-------------------
-------------------------------------------------------------------------
 Cry me a river, you'll learn.  Voodoo...

LEAD (3:50)                                        3:59
---------------------------------------------------------
--------------------------------------5------------------
-(x-x)-5----(x-x)-2----(x-x)-5---7p5---55-7p5~-----------
-(x-x)-5----(x-x)-2----(x-x)-5------7----------7~~-7~~---
---------------------------------------------------------
---------------------------------------------------------
(Guitar 1)

-------------------------------------------------------------------------
-------------------------------------------------------------------------
----5----------5--7\(3)--5p0--7--5-2------5----------5--7(\3)--5---2-2---
-0h5-x---------5--7\(3)-----x-7--5-2--0hh5-----------5--7(\3)--5---2-2---
------0--0--0--0------------0---------------0--0--0--0-------------------
-------------------------------------------------------------------------
(Guitar 2)
                                                                               4:08
---------------------------------------------------------------------------------------
---------------------------------------------------------------------------------------
-------------------------------------5-77^/(12)--7-5~-7/(12)-7-5~-7p5-5----------------
-------------------------------5-7p5---------------------------------7-7p5-5-----------
--------------(0)/5p3p0-7p5p3/7-----7-------------------------------------7-7p5\3~-----
-(1)/5p3\1/3-5--------------------------------------------------------------------5~~--
(Guitar 1)

-------------------------------------------------------------------------
-------------------------------------------------------------------------
----5----------5--7\(3)--5p0--7--5-2------5----------5--7(\3)--5---2-2---
-0h5-x---------5--7\(3)-----x-7--5-2--0hh5-----------5--7(\3)--5---2-2---
------0--0--0--0------------0---------------0--0--0--0-------------------
-------------------------------------------------------------------------
(Guitar 2)
                                                                                   4:18
-----------------------------------------------------------------------------------------
-----------------------------------------------------------------------------------------
-(7/12)-(x-x)-5-(x-x)-7~\(3)--(x-x)-5-(xx-x)-7~--(x-x)-5-(x-x)-7~---------------------7~-
-----------------------------------------------------------------------------------------
-----------------------------------------------------------------------------------------

-------------------------------------------------------------------------
-------------------------------------------------------------------------
----5----------5--7\(3)--5p0--7--5-2------5----------5--7(\3)--5---2-2---
-0h5-x---------5--7\(3)-----x-7--5-2--0hh5-----------5--7(\3)--5---2-2---
------0--0--0--0------------0---------------0--0--0--0-------------------
-------------------------------------------------------------------------
(Guitar 2)

--------------------------------------------------------------------------------------
-8p5-5-8p5----------------------------------------------------------------------------
----7-----7-5\4-7p5---5-----------------------------5-7p5-5~~/(9)-5--5-5-7-7-7-(x-x)--
---------------7---7p5-7p5-5-----------------------5-----7--------5--5-5-------(x-x)--
--------------------------7-7p5\3-3h5p3------3h/5h7-----------------------------------
---------------------------------------55-3/5-----------------------------------------
(Guitar 1)

-------------------------------------------------------------------------
-------------------------------------------------------------------------
----5----------5--7\(3)--5p0--7--5-2------5----------5--7(\3)--5---2-2---
-0h5-x---------5--7\(3)-----x-7--5-2--0hh5-----------5--7(\3)--5---2-2---
------0--0--0--0------------0---------------0--0--0--0-------------------
-------------------------------------------------------------------------
(Guitar 2)
                                                                 4:30
-----------------------------------------------------------------------
-----------------------------------------------------------------------
-------5p4--(x-x)-5--5-5-------(x-x)---55-(x-x)--------5-(x-x)---------
----5-7---7-(x-x)-5--5-5-7-7-7-(x-x)---55-(x-x)-7-7-7--5-(x-x)-7-7-7---
-5h7--------------------------------5h7--------------------------------
-----------------------------------------------------------------------
(Guitar 1)

-------------------------------------------------------------------------
-------------------------------------------------------------------------
----5----------5--7\(3)--5p0--7--5-2------5----------5--7(\3)--5---2-2---
-0h5-x---------5--7\(3)-----x-7--5-2--0hh5-----------5--7(\3)--5---2-2---
------0--0--0--0------------0---------------0--0--0--0-------------------
-------------------------------------------------------------------------


Important: The song above is NOT stored on the Chordie server. The original song is hosted at www.xguitar.com. Chordie works as a search engine and provides on-the-fly formatting. Chordie does not index songs against artists'/composers' will. To remove this song please click here.

This song is displayed as text-only. Transposing and tuning is only available for chordpro-songs.

Login - add to songbook

Rating click stars to rate

Layout
Accuracy

SHARE PAGE  




You need to log in to post comments