Guitar Tabs, Chords and Lyrics


Rat Salad    Black Sabbath











Start Date:
Finished: 6:23 PM 11/2/97
Updated: 09:02 3/20/01

Black Sabbath - Rat Salad

From Black Sabbath's "Paranoid" Album 1970

Tuning Info:  Standard Tuning, 112 beats/min., 4/4 count

-------------------------------------------------------------------
-------------------------------------------------------------------
-3~~~--------------3~~~--------------------------------------------
--------(4/)5-3-----------(4/)5-3----------------------------------
---------------5-----------------5------------4p3-4p3-4p3-4p3------
----------------3-----------------3-(100\)-3-6----------------6-3--
#cutline#
#cutline#

------------------------------
------------------------------
------------------------------
------------------------------
-----4p3-4p3-4p3-4p3----------
-3-6----6-----------6-3-------

--------------------------------------------------------------------
-------------------------------------------------------6-8/10-8~----
----------------------------------------------3-5-7~-7-----------17-
-------------------------------------------3-5----------------------
----3-4-4p3----------3-4-4p3---------3--4-5-------------------------
-3-6-------6-3----3-6-------6-3---3-6-------------------------------
-15--15--15-15-15-15-15-15----------
(15)-18^(21-21-21-21-21-21)\(9)-----
------------------------------------
------------------------------------
------------------------------------
------------------------------------

-----------------------------------------------------------------------------
-----------------------------------------------------------------------------
-----------------------------------------7--------------7--------------------
--------------------------7/8-7~~-7h8h110-8-7h8p7-7h8h10-8-7h8ph10-8-7-------
-----------------------------------------------------------------------8p7---
--------------------------------------------------------------------------10-
#cutline#

-----------------------------------------------------------------------------
-----------------------------------------------------------------------------
--------------------------------------------------------------------------6/7
-------------------7h8h10-10-8-7-----------7h8h10-7-8p7-8-7------7h8h10-10---
-8p7---8p7---7h8h10-------------8-7-7h88h10------------8---7h8h10------------
----10----10-----------------------------------------------------------------

-----------------------------------------------------
-----------------------------------------------------
-10-8-10p8-8-7-7/8\7------7--------------------------
--------------------7h8h10--8p7-7-8-8/110-10-10~-----
-----------------------------------------------------
-----------------------------------------------------

--------------------------------------------------------------------
-------------------------------------------------------6-8/10-8~----
----------------------------------------------3-5-7~-7-----------17-
-------------------------------------------3-5----------------------
----3-4-4p3----------3-4-4p3---------3--4-5-------------------------
-3-6-------6-3----3-6-------6-3---3-6-------------------------------
-15--15--15-15-15-15-15-15----------
(15)-18^(21-21-21-21-21-21)\(9)-----
------------------------------------
------------------------------------
------------------------------------

--------------------------------------------------------------------
-------------------------------------------------------6-8/10-8~----
----------------------------------------------3-5-7~-7-----------17-
-------------------------------------------3-5----------------------
----3-4-4p3----------3-4-4p3---------3--4-5-------------------------
-3-6-------6-3----3-6-------6-3---3-6-------------------------------
-15--15--15-15-15-15-15-15----------
(15)-18^(21-21-21-21-21-21)\(9)-----
------------------------------------
------------------------------------
------------------------------------
------------------------------------



Important: The song above is NOT stored on the Chordie server. The original song is hosted at www.xguitar.com. Chordie works as a search engine and provides on-the-fly formatting. Chordie does not index songs against artists'/composers' will. To remove this song please click here.

This song is displayed as text-only. Transposing and tuning is only available for chordpro-songs.

Login - add to songbook

Rating click stars to rate

Layout
Accuracy

SHARE PAGE  




You need to log in to post comments