Guitar Tabs, Chords and Lyrics


Ain't No More Cane   Bob Dylan

--------------------------------------------------------------------------------



--------------------------------------------------------------------------------

[C]Ain't no more [F]cane on the [C]Brazos
[C]Oh, [D7]oh, oh,[G]   [G6]    [G7]
[C]Its done ground [F]all to mo[C]lasses
[M-m-m-m-m]                                     
[C]Shoulda been on the [F]river in [C]1910
[G7]They were [C]driving the [F]women [C]just like [Am]men.
[M-m-m-m-m]                                     
[C]Shoulda been on the [F]river in [G]190[C]5
[C]Find yourself [F]lucky to b[C]e a[Am]live
Go [C]down Old [F]Hannah, don't you [G]rise no [C]more
[C] Don't you [F]rise til [G]Judgment [C]Day
Ain't [C]no more c[G]ane on the [C]Brazos
[C]They've done ground it [F]all to mo[C]lasses [Am]
  [F]:   .   [G].   .     [C]:   .   [F].   . [C]    :   .   .   .   .
|-1---1(0)3---3(0)|-0---0-0-111-110-|-0-0-0---0------------|
|-1---1(0)0---0(0)|-1---1-0-111-111-|-1-1-1---1------------|
|-2---2(0)0---0(0)|-0---0-0-222-220-|-0-0-0---0------------|
|-3---3(0)0---0(0)|-2---2-0-333-332-|-2-2-2---2------------|
|-3---3(0)2---2(0)|-3---3-0-333-333-|-3-3-3---3------------|
|-1---1---3---3(0)|---------111-113-|----------------------|

m - m-m - m - mm.

Important: The song above is NOT stored on the Chordie server. The original song is hosted at www.xguitar.com. Chordie works as a search engine and provides on-the-fly formatting. Chordie does not index songs against artists'/composers' will. To remove this song please click here.

Text color:
Chord color:
Chord grids: 
Font size:    
Page size: 

Am C D7 F G G6 G7
variations - click chord images

Login - add to songbook

Transpose chords

Tuning

Rating click stars to rate

Layout
Accuracy

SHARE PAGE  




You need to log in to post comments