Guitar Tabs, Chords and Lyrics


Makes Her Sick   Cold



Makes Her Sick
Straight C Tuning, tune down two whole steps

1=C   4=Bb
2=G   5=F
3=Eb  6=C

| ---------------------------
| ---------------------------
| -16--------17------19---
| ---------------------------
| -14--------15------17---
| ---------------------------
  Intro  (strum these octaves)

| ------------------------------------------------------------------ |
| ------------------------------------------------------------------ |
| ------------------------------------------------------------------ |
| -4-4--4-4-4--4-4-4--4-4--------5-5--5-5-5--5-5-5--7-7----- |
| -2-2--2-2-2--2-2-2--2-2--0--1-3-3--3-3-3--3-3-3--5-5----- |
| ------------------------------------------------------------------ |
  Verse

| -------------------------
| -------------------------
| -16-----17------19----
| -------------------------
| -14-----15------17----
| -------------------------


Important: The song above is NOT stored on the Chordie server. The original song is hosted at www.xguitar.com. Chordie works as a search engine and provides on-the-fly formatting. Chordie does not index songs against artists'/composers' will. To remove this song please click here.

This song is displayed as text-only. Transposing and tuning is only available for chordpro-songs.

Login - add to songbook

Rating click stars to rate

Layout
Accuracy

SHARE PAGE  




You need to log in to post comments