Guitar Tabs, Chords and Lyrics


Coffin Fodder    Cradle Of Filth



This is the lead part from the song Coffin Fodder off of
Cradle of Filth's new album, Nymphetamine.
Email any corrections you find to splat_of_draven@msn.com

D||------------------|------------------|------------------|------------------|
A||------------------|------------------|------------------|------------------|
F||------------------|------------------|------------------|------------------|
C||------------------|------------------|------------------|------------------|
G||------------------|------------------|------------------|------------------|
D||------------------|------------------|------------------|------------------|



----------------------|--------------------|--------------------|
----------------------|--------------------|--------------------|
--5--------5----5--8--|--5------------7----|--8------------7----|
--5--------5----5--8--|--5------------7----|--8------------7----|
--3--------3----3--6--|--3------------5----|--6------------5----|
----------------------|--------------------|--------------------|



----------------------|--------------------|--------------------|
----------------------|--------------------|--------------------|
-----------8----10----|--5--------------8--|--5------------7----|
--8--------8----10----|--5--------------8--|--5------------7----|
--8--------6----8-----|--3--------------6--|--3------------5----|
--6-------------------|--------------------|--------------------|



----------------------|-----------------------|---------3------------3-----|
----------------------|-----------------------|-----4-4----4-----4-4----4--|
--8----7---------7----|--5----7----8----10----|--5------------5------------|
--8----7----8----7----|--5----7----8----10----|----------------------------|
--6----5----8----5----|--3----5----6----8-----|----------------------------|
------------6---------|-----------------------|----------------------------|



---------3------------3-----|-----6--4--3----3--4--3--|
-----4-4----4-----4-4----4--|--4----------------------|
--5------------5------------|-------------------------|
----------------------------|-------------------------|
----------------------------|-------------------------|
----------------------------|-------------------------|



-----6--4--3--4--6--4--6--|---------3------------3-----|
--4-----------------------|-----4-4----4-----4-4----4--|
--------------------------|--5------------5------------|
--------------------------|----------------------------|
--------------------------|----------------------------|
--------------------------|----------------------------|



---------3------------3-----|-----6--4--3----3--4--3--|
-----4-4----4-----4-4----4--|--4----------------------|
--5------------5------------|-------------------------|
----------------------------|-------------------------|
----------------------------|-------------------------|
----------------------------|-------------------------|



-----6--4--3--4--6--4--6--|-------------------------------|
--4-----------------------|-------------------------------|
--------------------------|--5--x-x-5--x-x-5--x-x-x-x-x-x-|
--------------------------|--5--x-x-5--x-x-5--x-x-x-x-x-x-|
--------------------------|--3--x-x-3--x-x-3--x-x-x-x-x-x-|
--------------------------|-------------------------------|



----------------------------|-----------------------|--------------------------|
----------------------------|-----------------------|--------------------------|
--5--x-x-5--x-x-5--8--7-----|-----------------------|--------------------------|
--5--x-x-5--x-x-5--8--7--8--|--6--x-x-6---6---------|--8--x-x-8----3--5--3--5--|
--3--x-x-3--x-x-3--6--5--8--|--6--x-x-6---6---------|--8--x-x-8----3--5--3--5--|
-------------------------6--|--4--x-x-4---4---------|--6--x-x-6----1--3--1--3--|



-------------------------------|----------------------------|
-------------------------------|----------------------------|
--5--x-x-5--x-x-5--x-x-x-x-x-x-|--5--x-x-5--x-x-5--8--7-----|
--5--x-x-5--x-x-5--x-x-x-x-x-x-|--5--x-x-5--x-x-5--8--7--8--|
--3--x-x-3--x-x-3--x-x-x-x-x-x-|--3--x-x-3--x-x-3--6--5--8--|
-------------------------------|-------------------------6--|



-----------------------|--------------------------|--------------------|
-----------------------|--------------------------|--------------------|
-----------------------|--------------------------|--5--------------8--|
--6--x-x-6---6---------|--8--x-x-8----3--5--3--5--|--5--------------8--|
--6--x-x-6---6---------|--8--x-x-8----3--5--3--5--|--3--------------6--|
--4--x-x-4---4---------|--6--x-x-6----1--3--1--3--|--------------------|



--------------------|--------------------|----------------------|
--------------------|--------------------|----------------------|
--5------------7----|--8------------7----|-----------8----10----|
--5------------7----|--8------------7----|--8--------8----10----|
--3------------5----|--6------------5----|--8--------6----8-----|
--------------------|--------------------|--6-------------------|



--------------------|--------------------|----------------------|
--------------------|--------------------|----------------------|
--5--------------8--|--5------------7----|--8----7---------7----|
--5--------------8--|--5------------7----|--8----7----8----7----|
--3--------------6--|--3------------5----|--6----5----8----5----|
--------------------|--------------------|------------6---------|



-----------------------|------------------------|---------------------------|
-----------------------|------------------------|---------------------------|
--5----7----8----10----|--10/-----3------10/-9--|--2----2--2--2--2--2-2-2-2-|
--5----7----8----10----|--10/-----3------10/-9--|--2----2--2--2--2--2-2-2-2-|
--3----5----6----8-----|--8/------1------8/--7--|--0----0--0--0--0--0-0-0-0-|
-----------------------|------------------------|---------------------------|



------------------------|---------------------|------------------------|
------------------------|---------------------|------------------------|
--10/-----3------10/-9--|--7------9------6----|--10/-----3------10/-9--|
--10/-----3------10/-9--|--7------9------6----|--10/-----3------10/-9--|
--8/------1------8/--7--|--5------7------4----|--8/------1------8/--7--|
------------------------|---------------------|------------------------|



---------------------------|------------------------|-----------------------|
---------------------------|------------------------|-----------------------|
--2----2--2--2--2--2-2-2-2-|--10/-----3------10/-9--|--5------10------5--7--|
--2----2--2--2--2--2-2-2-2-|--10/-----3------10/-9--|--5------10------5--7--|
--0----0--0--0--0--0-0-0-0-|--8/------1------8/--7--|--3------8-------3--5--|
---------------------------|------------------------|-----------------------|



------------------------|---------------------------|------------------------|
------------------------|---------------------------|------------------------|
--10/-----3------10/-9--|--2----2--2--2--2--2-2-2-2-|--10/-----3------10/-9--|
--10/-----3------10/-9--|--2----2--2--2--2--2-2-2-2-|--10/-----3------10/-9--|
--8/------1------8/--7--|--0----0--0--0--0--0-0-0-0-|--8/------1------8/--7--|
------------------------|---------------------------|------------------------|



---------------------|------------------------|---------------------------|
---------------------|------------------------|---------------------------|
--7------9------6----|--10/-----3------10/-9--|--2----2--2--2--2--2-2-2-2-|
--7------9------6----|--10/-----3------10/-9--|--2----2--2--2--2--2-2-2-2-|
--5------7------4----|--8/------1------8/--7--|--0----0--0--0--0--0-0-0-0-|
---------------------|------------------------|---------------------------|



------------------------|-----------------------|---------3------------3-----|
------------------------|-----------------------|-----4-4----4-----4-4----4--|
--10/-----3------10/-9--|--5------10------5--7--|--5------------5------------|
--10/-----3------10/-9--|--5------10------5--7--|----------------------------|
--8/------1------8/--7--|--3------8-------3--5--|----------------------------|
------------------------|-----------------------|----------------------------|



---------3------------3-----|-----6--4--3----3--4--3--|
-----4-4----4-----4-4----4--|--4----------------------|
--5------------5------------|-------------------------|
----------------------------|-------------------------|
----------------------------|-------------------------|
----------------------------|-------------------------|



-----6--4--3--4--6--4--6--|---------3------------3-----|
--4-----------------------|-----4-4----4-----4-4----4--|
--------------------------|--5------------5------------|
--------------------------|----------------------------|
--------------------------|----------------------------|
--------------------------|----------------------------|



---------3------------3-----|-----6--4--3----3--4--3--|
-----4-4----4-----4-4----4--|--4----------------------|
--5------------5------------|-------------------------|
----------------------------|-------------------------|
----------------------------|-------------------------|
----------------------------|-------------------------|



-----6--4--3--4--6--4--6--|-------------------------------|
--4-----------------------|-------------------------------|
--------------------------|--5--x-x-5--x-x-5--x-x-x-x-x-x-|
--------------------------|--5--x-x-5--x-x-5--x-x-x-x-x-x-|
--------------------------|--3--x-x-3--x-x-3--x-x-x-x-x-x-|
--------------------------|-------------------------------|



----------------------------|-----------------------|--------------------------|
----------------------------|-----------------------|--------------------------|
--5--x-x-5--x-x-5--8--7-----|-----------------------|--------------------------|
--5--x-x-5--x-x-5--8--7--8--|--6--x-x-6---6---------|--8--x-x-8----3--5--3--5--|
--3--x-x-3--x-x-3--6--5--8--|--6--x-x-6---6---------|--8--x-x-8----3--5--3--5--|
-------------------------6--|--4--x-x-4---4---------|--6--x-x-6----1--3--1--3--|



-------------------------------|----------------------------|
-------------------------------|----------------------------|
--5--x-x-5--x-x-5--x-x-x-x-x-x-|--5--x-x-5--x-x-5--8--7-----|
--5--x-x-5--x-x-5--x-x-x-x-x-x-|--5--x-x-5--x-x-5--8--7--8--|
--3--x-x-3--x-x-3--x-x-x-x-x-x-|--3--x-x-3--x-x-3--6--5--8--|
-------------------------------|-------------------------6--|



-----------------------|--------------------------|--------------------|
-----------------------|--------------------------|--------------------|
-----------------------|--------------------------|--5--------------8--|
--6--x-x-6---6---------|--8--x-x-8----3--5--3--5--|--5--------------8--|
--6--x-x-6---6---------|--8--x-x-8----3--5--3--5--|--3--------------6--|
--4--x-x-4---4---------|--6--x-x-6----1--3--1--3--|--------------------|



--------------------|--------------------|----------------------|
--------------------|--------------------|----------------------|
--5------------7----|--8------------7----|-----------8----10----|
--5------------7----|--8------------7----|--8--------8----10----|
--3------------5----|--6------------5----|--8--------6----8-----|
--------------------|--------------------|--6-------------------|



--------------------|--------------------|----------------------|
--------------------|--------------------|----------------------|
--5--------------8--|--5------------7----|--8----7---------7----|
--5--------------8--|--5------------7----|--8----7----8----7----|
--3--------------6--|--3------------5----|--6----5----8----5----|
--------------------|--------------------|------------6---------|



-----------------------|------------------------|---------------------------|
-----------------------|------------------------|---------------------------|
--5----7----8----10----|--10/-----3------10/-9--|--2----2--2--2--2--2-2-2-2-|
--5----7----8----10----|--10/-----3------10/-9--|--2----2--2--2--2--2-2-2-2-|
--3----5----6----8-----|--8/------1------8/--7--|--0----0--0--0--0--0-0-0-0-|
-----------------------|------------------------|---------------------------|



------------------------|---------------------|------------------------|
------------------------|---------------------|------------------------|
--10/-----3------10/-9--|--7------9------6----|--10/-----3------10/-9--|
--10/-----3------10/-9--|--7------9------6----|--10/-----3------10/-9--|
--8/------1------8/--7--|--5------7------4----|--8/------1------8/--7--|
------------------------|---------------------|------------------------|



---------------------------|------------------------|-----------------------|
---------------------------|------------------------|-----------------------|
--2----2--2--2--2--2-2-2-2-|--10/-----3------10/-9--|--5------10------5--7--|
--2----2--2--2--2--2-2-2-2-|--10/-----3------10/-9--|--5------10------5--7--|
--0----0--0--0--0--0-0-0-0-|--8/------1------8/--7--|--3------8-------3--5--|
---------------------------|------------------------|-----------------------|



------------------------|---------------------------|------------------------|
------------------------|---------------------------|------------------------|
--10/-----3------10/-9--|--2----2--2--2--2--2-2-2-2-|--10/-----3------10/-9--|
--10/-----3------10/-9--|--2----2--2--2--2--2-2-2-2-|--10/-----3------10/-9--|
--8/------1------8/--7--|--0----0--0--0--0--0-0-0-0-|--8/------1------8/--7--|
------------------------|---------------------------|------------------------|



---------------------|------------------------|---------------------------|
---------------------|------------------------|---------------------------|
--7------9------6----|--10/-----3------10/-9--|--2----2--2--2--2--2-2-2-2-|
--7------9------6----|--10/-----3------10/-9--|--2----2--2--2--2--2-2-2-2-|
--5------7------4----|--8/------1------8/--7--|--0----0--0--0--0--0-0-0-0-|
---------------------|------------------------|---------------------------|



------------------------|-----------------------|--------------------------|
------------------------|-----------------------|--------------------------|
--10/-----3------10/-9--|--5------10------5--7--|--------------------------|
--10/-----3------10/-9--|--5------10------5--7--|--5------------------5----|
--8/------1------8/--7--|--3------8-------3--5--|--3------------------3----|
------------------------|-----------------------|-------1-1-1-1-1--1-------|



-------------------------|----------------------------|
-------------------------|----------------------------|
-------------------------|----------------------------|
--6------------5----8----|--6-------------------------|
--4------------3----6----|--4-------------------------|
-------1-1-1-1-----------|-------1-1-1-1-1--1-1-1--1--|



--------------------------|--------------------------|-------------------------|
--------------------------|--------------------------|-------------------------|
--------------------------|--------------------------|-------------------------|
--5--2--6--8--5--2--6--8--|--5------------------5----|--6------------5----8----|
--3--0--4--6--3--0--4--6--|--3------------------3----|--4------------3----6----|
--------------------------|-------1-1-1-1-1--1-------|-------1-1-1-1-----------|



----------------------------|--------------------------|--------------------|
----------------------------|--------------------------|--------------------|
----------------------------|--------------------------|--------------------|
--6-------------------------|--5--2--6--8--5--2--6--8--|--------------------|
--4-------------------------|--3--0--4--6--3--0--4--6--|--5------------5----|
-------1-1-1-1-1--1-1-1--1--|--------------------------|--3------------3----|



---------------------|-------------------|--------------------------|
---------------------|-------------------|--------------------------|
---------------------|-------------------|--------------------------|
---------------------|-------------------|--------------------------|
--6--------5----8----|--6----------------|--5--2--6--8--5--2--6--8--|
--4--------3----6----|--4----------------|--3--0--4--6--3--0--4--6--|



--------------------|---------------------|-------------------|
--------------------|---------------------|-------------------|
--------------------|---------------------|-------------------|
--------------------|---------------------|-------------------|
--5------------5----|--6--------5----8----|--6----------------|
--3------------3----|--4--------3----6----|--4----------------|



--------------------------|--------------------|---------------------|
--------------------------|--------------------|---------------------|
--------------------------|--------------------|---------------------|
--------------------------|--------------------|---------------------|
--5--2--6--8--5--2--6--8--|--5------------5----|--6--------5----8----|
--3--0--4--6--3--0--4--6--|--3------------3----|--4--------3----6----|



-------------------|--------------------------|--------------------|
-------------------|--------------------------|--------------------|
-------------------|--------------------------|--------------------|
-------------------|--------------------------|--------------------|
--6----------------|--5--2--6--8--5--2--6--8--|--5------------5----|
--4----------------|--3--0--4--6--3--0--4--6--|--3------------3----|



---------------------|-------------------|--------------------------|
---------------------|-------------------|--------------------------|
---------------------|-------------------|--------------------------|
---------------------|-------------------|--------------------------|
--6--------5----8----|--6----------------|--5--2--6--8--5--2--6--8--|
--4--------3----6----|--4----------------|--3--0--4--6--3--0--4--6--|



--------------------------|-------------------------|
--------------------------|-------------------------|
--------------------------|-------------------------|
--5------------------5----|--6------------5----8----|
--3------------------3----|--4------------3----6----|
-------1-1-1-1-1--1-------|-------1-1-1-1-----------|



----------------------------|--------------------------|
----------------------------|--------------------------|
----------------------------|--------------------------|
--6-------------------------|--5--2--6--8--5--2--6--8--|
--4-------------------------|--3--0--4--6--3--0--4--6--|
-------1-1-1-1-1--1-1-1--1--|--------------------------|



--------------------------|-------------------------|
--------------------------|-------------------------|
--------------------------|-------------------------|
--5------------------5----|--6------------5----8----|
--3------------------3----|--4------------3----6----|
-------1-1-1-1-1--1-------|-------1-1-1-1-----------|



----------------------------|--------------------------|
----------------------------|--------------------------|
----------------------------|--------------------------|
--6-------------------------|--5--2--6--8--5--2--6--8--|
--4-------------------------|--3--0--4--6--3--0--4--6--|
-------1-1-1-1-1--1-1-1--1--|--------------------------|



------------------------|---------------------------|------------------------|
------------------------|---------------------------|------------------------|
--10/-----3------10/-9--|--2----2--2--2--2--2-2-2-2-|--10/-----3------10/-9--|
--10/-----3------10/-9--|--2----2--2--2--2--2-2-2-2-|--10/-----3------10/-9--|
--8/------1------8/--7--|--0----0--0--0--0--0-0-0-0-|--8/------1------8/--7--|
------------------------|---------------------------|------------------------|



---------------------|------------------------|---------------------------|
---------------------|------------------------|---------------------------|
--7------9------6----|--10/-----3------10/-9--|--2----2--2--2--2--2-2-2-2-|
--7------9------6----|--10/-----3------10/-9--|--2----2--2--2--2--2-2-2-2-|
--5------7------4----|--8/------1------8/--7--|--0----0--0--0--0--0-0-0-0-|
---------------------|------------------------|---------------------------|



------------------------|-----------------------|---------3------------3-----|
------------------------|-----------------------|-----4-4----4-----4-4----4--|
--10/-----3------10/-9--|--5------10------5--7--|--5------------5------------|
--10/-----3------10/-9--|--5------10------5--7--|----------------------------|
--8/------1------8/--7--|--3------8-------3--5--|----------------------------|
------------------------|-----------------------|----------------------------|



---------3------------3-----|-----6--4--3----3--4--3--|
-----4-4----4-----4-4----4--|--4----------------------|
--5------------5------------|-------------------------|
----------------------------|-------------------------|
----------------------------|-------------------------|
----------------------------|-------------------------|



-----6--4--3--4--6--4--6--|---------3------------3-----|
--4-----------------------|-----4-4----4-----4-4----4--|
--------------------------|--5------------5------------|
--------------------------|----------------------------|
--------------------------|----------------------------|
--------------------------|----------------------------|



---------3------------3-----|-----6--4--3----3--4--3--|
-----4-4----4-----4-4----4--|--4----------------------|
--5------------5------------|-------------------------|
----------------------------|-------------------------|
----------------------------|-------------------------|
----------------------------|-------------------------|



-----6--4--3--4--6--4--6--|-------------------------------|
--4-----------------------|-------------------------------|
--------------------------|--5--x-x-5--x-x-5--x-x-x-x-x-x-|
--------------------------|--5--x-x-5--x-x-5--x-x-x-x-x-x-|
--------------------------|--3--x-x-3--x-x-3--x-x-x-x-x-x-|
--------------------------|-------------------------------|



----------------------------|-----------------------|--------------------------|
----------------------------|-----------------------|--------------------------|
--5--x-x-5--x-x-5--8--7-----|-----------------------|--------------------------|
--5--x-x-5--x-x-5--8--7--8--|--6--x-x-6---6---------|--8--x-x-8----3--5--3--5--|
--3--x-x-3--x-x-3--6--5--8--|--6--x-x-6---6---------|--8--x-x-8----3--5--3--5--|
-------------------------6--|--4--x-x-4---4---------|--6--x-x-6----1--3--1--3--|



-------------------------------|----------------------------|
-------------------------------|----------------------------|
--5--x-x-5--x-x-5--x-x-x-x-x-x-|--5--x-x-5--x-x-5--8--7-----|
--5--x-x-5--x-x-5--x-x-x-x-x-x-|--5--x-x-5--x-x-5--8--7--8--|
--3--x-x-3--x-x-3--x-x-x-x-x-x-|--3--x-x-3--x-x-3--6--5--8--|
-------------------------------|-------------------------6--|



-----------------------|--------------------------|--------------------|
-----------------------|--------------------------|--------------------|
-----------------------|--------------------------|--5--------------8--|
--6--x-x-6---6---------|--8--x-x-8----3--5--3--5--|--5--------------8--|
--6--x-x-6---6---------|--8--x-x-8----3--5--3--5--|--3--------------6--|
--4--x-x-4---4---------|--6--x-x-6----1--3--1--3--|--------------------|



--------------------|--------------------|----------------------|
--------------------|--------------------|----------------------|
--5------------7----|--8------------7----|-----------8----10----|
--5------------7----|--8------------7----|--8--------8----10----|
--3------------5----|--6------------5----|--8--------6----8-----|
--------------------|--------------------|--6-------------------|



--------------------|--------------------|----------------------|
--------------------|--------------------|----------------------|
--5--------------8--|--5------------7----|--8----7---------7----|
--5--------------8--|--5------------7----|--8----7----8----7----|
--3--------------6--|--3------------5----|--6----5----8----5----|
--------------------|--------------------|------------6---------|



-----------------------|----------------------|-----------------------|
-----------------------|----------------------|-----------------------|
--5----7----8----10----|--8----7---------7----|--5----7----8----10----|
--5----7----8----10----|--8----7----8----7----|--5----7----8----10----|
--3----5----6----8-----|--6----5----8----5----|--3----5----6----8-----|
-----------------------|------------6---------|-----------------------|



--------------------||
--------------------||
--5--------5/-------||
--5--------5/-------||
--3--------3/-------||


Important: The song above is NOT stored on the Chordie server. The original song is hosted at www.xguitar.com. Chordie works as a search engine and provides on-the-fly formatting. Chordie does not index songs against artists'/composers' will. To remove this song please click here.

This song is displayed as text-only. Transposing and tuning is only available for chordpro-songs.

Login - add to songbook

Rating click stars to rate

Layout
Accuracy

SHARE PAGE  




You need to log in to post comments