Guitar Tabs, Chords and Lyrics


Mother of Abominations    Cradle Of Filth



"Mother of Abominations" - Cradle of Filth
(Nymphetamine)

Tuning: Standard EADGBE


Intro (play after voices):
||-------------------------------------|---------------------------------------|
||-------------------------------------|---------------------------------------|
||.------------------------------------|---------------------------------------|
||.------------10----------------10----|-------------13-----------10-------12--|
||-------10-10----10-------10-10----10-|-------13-13----13-----10-------12-----|
||---8-8---------------8-8-------------|-11-11---------------8-------10--------|


|------------------------------------|----------------------------------------||
|------------------------------------|----------------------------------------||
|------------------------------------|---------------------------------------.||
|------------10----------------10----|-------------13-----------10-------12--.||
|------10-10----10-------10-10----10-|-------13-13----13-----10-------12------||
|--8-8---------------8-8-------------|-11-11---------------8-------10---------||


||------------------------------------------------|
||------------------------------------------------|
||.-----------------------------------------------|
||.-----------------------------------------------|
||--2--2--2----3---------------------2-3-2--------|
||--0--0--0--0-1-0-0-0-0-0-0-0-0-2-3-------3-2-1--|


|-------------------------------------------||
|-------------------------------------------||
|------------------------------------------.||
|------------------------------------------.||
|-2--2--2----3-2-2-3-3-2-2-4-4-5-3-2-2-2-3--||
|-0--0--0--0-1-2-2-3-3-2-2-4-4-5-3-2-2-2-3--||


Main Part:

Rythm 1
||-------------------------------------|---------------------------------------|
||-------------------------------------|---------------------------------------|
||.------------------------------------|---------------------------------------|
||.------------10----------------10----|-------------13-----------10-------12--|
||-------10-10----10-------10-10----10-|-------13-13----13-----10-------12-----|
||---8-8---------------8-8-------------|-11-11---------------8-------10--------|


|------------------------------------|----------------------------------------||
|------------------------------------|----------------------------------------||
|------------------------------------|---------------------------------------.||
|------------10----------------10----|-------------13-----------10-------12--.||
|------10-10----10-------10-10----10-|-------13-13----13-----10-------12------||
|--8-8---------------8-8-------------|-11-11---------------8-------10---------||

Rythm 2
||------------------------------------------------|
||------------------------------------------------|
||.-----------------------------------------------|
||.-----------------------------------------------|
||--2--2--2----3---------------------2-3-2--------|
||--0--0--0--0-1-0-0-0-0-0-0-0-0-2-3-------3-2-1--|


|-------------------------------------------||
|-------------------------------------------||
|------------------------------------------.||
|------------------------------------------.||
|-2--2--2----3-2-2-3-3-2-2-4-4-5-3-2-2-2-3--||
|-0--0--0--0-1-2-2-3-3-2-2-4-4-5-3-2-2-2-3--||

Rythm 3
||-----------------------------------------------||
||-----------------------------------------------||
||.---------------------------------------------.||
||.---------------------------------------------.||
||--7-6s7-6-5s6-5-4s5-4-4-7-6s7-6-5s6-5-2-3------||
||--5-4s5-4-3s4-3-2s3-2-2-5-4s5-4-3s4-3-0-1------||

Rythm 4
||-------------------------------------------------------------||
||-------------------------------------------------------------||
||.-----------------------------------------------------------.||
||.-------------------------------9-9-8-8-9------10-10-9-9-10-.||
||--3h4h5p4h5-4--3h4h5p4h5-4--7-7------------8-8---------------||
||-------------------------------------------------------------||

||-------------------------------------------------------------||
||-------------------------------------------------------------||
||.-----------------------------------------------------------.||
||.-------------------------------9-9-8-8-9------10-10-9-9-10-.||
||--3h4h5p4h5-4--3h4h5p4h5-4--7-7------------8-8---------------||
||-------------------------------------------------------------||

Rythm 5
||-------------------------------------------------------------------|
||-------------------------------------------------------------------|
||-------------------------------------------------------------------|
||-------------------------------------------------------------------|
||-6-6-6-6-6-6-6-6-9-9-9-6s7-6--9--6-6-6-6-6-6-6-6-------------------|
||-4-4-4-4-4-4-4-4-7-7-7-6s7-6--7--4-4-4-4-4-4-4-4--2-5-2-4-2-5-2-4--|

|-------------------------------------------------------------||
|-------------------------------------------------------------||
|-------------------------------------------------------------||
|-------------------------------------------------------------||
|-6-6-6-6-6-6-6-6-9-9-9-6s7-6--9--6-6-6-6-6-6-6-6--5--4--3----||
|-4-4-4-4-4-4-4-4-7-7-7-6s7-6--7--4-4-4-4-4-4-4-4--3--2--1----||

Play Main Part a second time, and play this just after:

||----------------||
||----------------||
||----------------||
||----------------||
||-5--4--3---2----||
||-3--2--1---0----|| Hold the last note


Ending (after 2 minutes):
||-----------------------------------------------------------------------
||-----------------------------------------------------------------------
||-----------------------------------------------------------------------
||-----------------------------------------------------------------------
||-7-----------------------------7-7s6-----------------------------6-6s5-
||-5-0-0-0-0-0-0--0-0-0--0-0-0-0-5-5s4-0-0-0-0-0-0--0-0-0--0-0-0-0-4-4s3-


----------------------------------------------------------------------||
----------------------------------------------------------------------||
----------------------------------------------------------------------||
----------------------------------------------------------------------||
-----------------------------5-5s4-----------------------------3s8s7--|| Ad lib


Important: The song above is NOT stored on the Chordie server. The original song is hosted at www.xguitar.com. Chordie works as a search engine and provides on-the-fly formatting. Chordie does not index songs against artists'/composers' will. To remove this song please click here.

This song is displayed as text-only. Transposing and tuning is only available for chordpro-songs.

Login - add to songbook

Rating click stars to rate

Layout
Accuracy

SHARE PAGE  




You need to log in to post comments