Guitar Tabs, Chords and Lyrics


Nymphetamine Fix    Cradle Of Filth



Tuning C G C F A D
h hammer on
p pull off


Intro:

C 0---3---/8--5--7--Repeat a few times until next riff
G 0---3---/8--5--7--
C 0---3---/8--5--7--


Repeat 2X Guitar 2 plays intro in background

F 14-12-14--14-12-14-12-14--14-12-14-12-14--14-12-14-12-14--14-12-14-12-14--
A --------15--------------15--------------14--------------14--------------12

F 14-12-14-12-14--14-12-14-12-14--14-12-14-12-14-15-14-12
A --------------12--------------15-----------------------


Both Guitars

C 7-7-7-7-7-7-5-5-5-5-5-5-7-7-7-7-7-7-3-3-3-3-3-3-7-7-7-7-7-7-5-5-5-5-5-5
G 7-7-7-7-7-7-5-5-5-5-5-5-7-7-7-7-7-7-3-3-3-3-3-3-7-7-7-7-7-7-5-5-5-5-5-5
PM. . . . . . . . . . . . . . . . . . . . . . . . . . . . . . . . . . . .

C 3-3-3-3-3-3-5-5-5-5-5-5
G 3-3-3-3-3-3-5-5-5-5-5-5
PM. . . . . . . . . . . .
Second guitar plays this last line without palm mute second time


Both Guitars

F 10h12-12----------------------------------------------------------------
A ---------9-10-9-10p9-7-10-12-10-12p10-9-14-15-14-15p14-12-15p14-11-12-14

F 10h12-12----------------------------------------------------------------
A ---------9-10-9-10p9-7-10-12-10-12p10-9-14-15-14-15p14-15-15p14-11-12-14
Second time Guitar 2 plays ^, it’s a slight change up

F 9h11-11----------------------------------------------------------
A -------8-9-8-9p8-6-9-11-9-11p9-8-13-14-13-14p13-11-14p13-10-11-13
Guitar 2 changes up second time with ^

Both Guitars
C 5-5-8--7--3--4
G 5-5-8--7--3--4
C 5-5-8--7--3--4
End with open on last time

F 14-12-14-12-14-15-14-12-14-12-14--14-12-14-12-14--14-12-14-12-14--14-12-14-12-14--14-12-14-12-14--
A --------------------------------15--------------15--------------14--------------14--------------12

F 14-12-14-12-14--14-12-14-12-14--14-12-14-12-14-15-14-12
A --------------12--------------15-----------------------



Important: The song above is NOT stored on the Chordie server. The original song is hosted at www.xguitar.com. Chordie works as a search engine and provides on-the-fly formatting. Chordie does not index songs against artists'/composers' will. To remove this song please click here.

This song is displayed as text-only. Transposing and tuning is only available for chordpro-songs.

Login - add to songbook

Rating click stars to rate

Layout
Accuracy

SHARE PAGE  




You need to log in to post comments