Guitar Tabs, Chords and Lyrics


Swansong for a Raven    Cradle Of Filth



cradle of filth - swansong for a raven
Tabbed By: sabbath666
Email: oneupshroom1@aol.com

Tuning: Drop C (C G C F A D)

this song is a bit confusing and its for more advanced guitarists if your just begining
you probably wont be able to play the whole thing but hey, if u wanna try go right ahead
most of its pretty easy

D|----------------------------------------------------------------||
A|----------------------------------------------------------------||
F|----------------------------------------------------------------||
C|-4xx444xx44--0xx000xx00--2xx222xx22--4xx44----------------------||
G|-4xx444xx44--0xx000xx00--2xx222xx22--4xx44--5p4p0-4h5h7---------||
C|-4xx444xx44--0xx000xx00--2xx222xx22--4xx44----------------------||


D|----------------------------------------------------------------||
A|----------------------------------------------------------------||
F|----------------------------------------------------------------||
C|---7------7-----7------6-----7------7----7--6--3-333---||
G|-8---8---------8-8---8---------7-8---8---------8--7--6--3-333---||
C|--------------------------------------------------7--6--3-333---||


D|----------------------------------------------------------------||
A|----------------------------------------------------------------||
F|----------------------------------------------------------------||
C|----------------------------------------------------------------||
G|-------------------------------------------------10-11p10-8-6-5-||
C|-10-12-13-12-10-12-9-10p9-6-5--10-12-13-12-10-12----------------||
TP....................      .........................       ......

D||---------------------------------|
A||---------------------------------|
F||------pm------pm-----------------|
C||-5\44-44-2/44-55-5\44--8\5-2/5---|
G||-5\44-44-2/44-55-5\44--8\5-2/5---|
C||-5\44-44-2/44-55-5\44--8\5-2/5---|


|------------------------------------------------||
|------------------------------------------------||
|------pm------pm--------------------------------||
|-5\44-44-2/44-55-5\4-4-3/10-3/5/12-12\5---------||
|-5\44-44-2/44-55-5\4-4-3/10-3/5/12-12\5---------||
|-5\44-44-2/44-55-5\4-4-3/10-3/5/12-12\5---------||

D||------------------------------------------------|
A||------------------------------------------------|
F||------------------------------------------------|
C||-5\4-4-4-44-2/4-4-4-44-5\4-4-4-44-8\5-2/5-------|
G||-5\4-4-4-44-2/4-4-4-44-5\4-4-4-44-8\5-2/5-------|
C||-5\4-4-4-44-2/4-4-4-44-5\4-4-4-44-8\5-2/5-------|


|------------------------------------------------||
|------------------------------------------------||
|------------------------------------------------||
|-5\4-4-4-44-2/4-4-4-44-3/10-3/5-12~\5-12\5------||
|-5\4-4-4-44-2/4-4-4-44-3/10-3/5-12~\5-12\5------||
|-5\4-4-4-44-2/4-4-4-44-3/10-3/5-12~\5-12\5------||



D||-----------------------------------------------------|
A||-----------------------------------------------------|
F||-4\--------------------------------------------------|
C||----4h5-5p4h5/7--10-99-9h10p9-9-9-9-9-9b-9br(7)\-----|
G||-----------------------------------------------------|
C||-----------------------------------------------------|


|--------------------------------||
|--------------------------------||
|-----------------------------||
|--2x5x7-------------------------||
|--2x5x7--3-2h3p2-0-5-3----------||
|--2x5x7-------------------------||


D|--------------------------------||
A|--------------------------------||
F|--------------------------------||
C|-10-10101010109910912109107-2---||
G|-10-10101010109910912109107-2---||
C|-10-10101010109910912109107-2---||


D|----------------------------------------------------------------||
A|----------------------------------------------------------------||
F|----------------------------------------------------------------||
C|-99997755h7p5/44445545477775575---------------------------------||
G|-------------------------------3333-----------------------------||
C|-----------------------------------545754545754-----------------||


||--------------------------||
||--------------------------||
||-----------------------||
||--------------------------||
||---------3-2h3p2-0-5-3----||


Important: The song above is NOT stored on the Chordie server. The original song is hosted at www.xguitar.com. Chordie works as a search engine and provides on-the-fly formatting. Chordie does not index songs against artists'/composers' will. To remove this song please click here.

This song is displayed as text-only. Transposing and tuning is only available for chordpro-songs.

Login - add to songbook

Rating click stars to rate

Layout
Accuracy

SHARE PAGE  




You need to log in to post comments