Chordie logo

Travelin' Band      Creedence Clearwater Revival



Travelin Band

Creedence Clearwater Revival

Brian S

Intro :
e-----------------------------------------------------------------|
b-----------------------------------------------------------------|
g--6-6-----6-6-6-----4-4-----4-4-4--------------------------------|
d--6-6--8--6-6-6--8--4-4--6--4-4-4--6--4-4-----4-4-4-----4-4-4----|
a--4-4--4--4-4-4--4--2-2--2--2-2-2--2--4-4--6--4-4-4--6--4-4-4--6-|
e--------------------------------------2-2--2--2-2-2--2--2-2-2--2-|

Verse : Play chords with drum beats
e----------------------------------------------------------------|
b----------------------------------------------------------------|
g--3-----------------------------3--------------3----------------|
d--4-----------------------------4--------------4------4-4-4-4-4-|
a--4-----------------------------4--------------4------4-4-4-4-4-|
e--2-----------------------------2--------------2------2-2-2-2-2-|
  -Seven thirty seven, call my daughter...

e----------------------------------------------|
b----------------------------------------------|
g----------------------------------------------|
d---------4-4--6--4-4-4--6--4-4--6--4-4-4--6---|
a---------2-2--2--2-2-2--2--2-2--2--2-2-2--2---|
e----------------------------------------------|
  I wont move...                 playin in a travelin

e------------------------------------------|
b------------------------------------------|
g------------------------------------------|
d------------------------------------------|
a--4-4--6--4-4-4--6--4-4--6--4-4-4--6------|
e--2-2--2--2-2-2--2--2-2--2--2-2-2--2------|
   band... 			yeh

e-----------------------------------------------------------------|
b-----------------------------------------------------------------|
g--6-6-----6-6-6-----4-4-----4-4-4--------------------------------|
d--6-6--8--6-6-6--8--4-4--6--4-4-4--6--4-4-----4-4-4-----4-4-4----|
a--4-4--4--4-4-4--4--2-2--2--2-2-2--2--4-4--6--4-4-4--6--4-4-4--6-|
e--------------------------------------2-2--2--2-2-2--2--2-2-2--2-|

1st SOlo :
e--(14)------14------14-----14-----14-----14-----14-----14-----14-|
b-------17b------17b----17b----17b----17b----17b----17b----17b----|
g-----------------------------------------------------------------|
d-----------------------------------------------------------------|
a-----------------------------------------------------------------|
e-----------------------------------------------------------------|

e---14-----14-----14-----14-----14-----14-----14-----14-------|
b------17b----17b----17b----17b----17b----17b----17b----17b---|
g-------------------------------------------------------------|
d-------------------------------------------------------------|
a-------------------------------------------------------------|
e-------------------------------------------------------------|

e------14-----14----14----14----14----14----14---|
b------14-----14----14----14----14----14----14---|
g--16b----16b---16b---16b---16b---16b---16b------|
d------------------------------------------------|
a------------------------------------------------|
e------------------------------------------------|




Important: The song above is NOT stored on the Chordie server. The original song is hosted at www.xguitar.com. Chordie works as a search engine and provides on-the-fly formatting. Chordie does not index songs against artists/composers will. To remove this song please click here.

This song is displayed as text-only. Transposing and tuning is only available for chordpro-songs.

Rating click stars to rate

Layout
Accuracy

SHARE PAGE  

You need to log in to post comments