Chordie logo


Genetic Reconstruction    Death



Band: Death
Album: Spiritual Healing
Song: Genetic Reconstruction

Copyright (c) Relativity Records 1990
Version 1.0 â€" 01-13-05

Originally Transcribed by: Scott King
Adds and corrections By: Niklas “Spellbound” Spångberg
Email: Nicke.sp@telia.com

.  - palm mute           /  - slide up to
\  - slide down to       ~  - vibrato
h  - hammer on           b  - Bend
p  - pull off            Suffixes for bend
t  - tap                 f  - full bend    h - half bend
ph - pinched harmonic    q  - quarter bend t - tap bend
*  - see comment         ^  - Hold bend    r release bend
x  - Stuccatto           ~  - vibrato bend
,  - slight palm mute    () - ghost note, sustained note
"  - tremolo note         - Trill

Tuning D G C E A D

Comments: Another fun little song from Spiritual Healing, very underrated album
if you ask me. Make sure you get the timing right when you play Riff D,
otherwise it will sound like crap.
If you got any comments, suggestions or corrections, please email me.
---------------------------------------------------------------

Riff A
|------------------------------------------------------------------|
|------------------------------------------------------------------|
|------------------------------------------------------------------|
|-----6------------------------------------------------------------|
|---4---4-----------------1111111111111111-4-5-4-------------------|
|-4-------3333333333333333-----------------2-3-2-2222222222222222--|
          ................................       ................

Play Riff A 4 times

Fill
|---------|
|---------|
|---------|
|-----6---|
|---4---4-|
|-4-------|

Play Fill once

 Riff B
|------------------------------------------------------------------------|
|------------------------------------------------------------------------|
|------------------------------------------------------------------------|
|--------------------33333333222222--------------------------------------|
|----------------------------------3333331111111111111111----------------|
|-000000000000000000-------------------------------------2222222233331111|
  .................. ....................................................
Continuation of Riff B
|------------------------------------------------------------------------|
|------------------------------------------------------------------------|
|------------------------------------------------------------------------|
|--------------------33333333222222--------------------------------------|
|----------------------------------3333334444444444444444----------------|
|-000000000000000000-------------------------------------2222222233331111|
  .................. ....................................................

Play Riff B twice

 Riff C
|-----------------------------------------------------------------------|
|--------10-9--------------9--8----------10-9---------------------------|
|-----9--------10-9-----8-------------9--------10-9------8-----6-----9--| Gtr I
|--7-----------------6-------------7------------------6-----9-----8-----|
|-----------------------------------------------------------------------|
|-----------------------------------------------------------------------|

|-----------------------------------------------------------------------|
|-----------------------------------------------------------------------|
|-----------------------------------------------------------------------| Gtr II
|--------7--6--------------6--5~---------7--6---------------------------|
|-----7--------8--7-----6-------------7--------8--7------6-----4-----7--|
|--5-----------------4-------------5------------------4-----7-----6-----|

Play Riff C 4 times

 Riff D
|---------------------------------------|
|---------------------------------------|
|------4---3--------------4---3---------|
|-2----4---3-3------------4---3-3-------|
|-2----2---1-3---5-6-2----2---1-3---6-5-|
|-0----------1---3-4-0----------1---4-3-|


Riff E
|---------------------------------------|
|------12--11-------------12--11--------|
|-9----------10-12-13--9--------10-13-12|Guitar II
|------9---8--------------9---8---------|
|-7----------8--10-11--7--------8--11-10|
|---------------------------------------|

Play Riff D twice
On the second time, guitar II plays riff E

Riff F
|------------------------------------------------------------------|
|------------------------------------------------------------------|
|------------------------------------------------------------------|Guitar II
|------------------------------------------------------------------|
|-0000000000000000----------------3333333333333333-----------------|
|-----------------4444444444444444----------------2222222222222222-|
  ................................................................

Play Riff F 4 times

Riff G
|------------------------------------|
|------------------------------------|
|------------------------------------|Guitar II
|------------------------------------|
|------------------------------------|
|-1111111144444444333300000000000----|
  ...............................

Play Riff G 4 times

Riffs F and G are played under the guitar solos

Riff H
|----------------------------|
|----------------------------|
|----------------------------|
|----------------------------|
|-----2----1----1-----3-4-3--|
|--000--000--000--000-1-2-1--|

Play Riff H 6 times

Riff I
|-------------------------------------------------------------------|
|---12-13---12-13---12----12-13----13--12---12---12-13---12-13---12-|
|-9-------9-------9----10-------10-------12----9-------9-------9----|Guitar I
|-------------------------------------------------------------------|
|-------------------------------------------------------------------|
|-------------------------------------------------------------------|

|-------------------------------------------------------------------|
|-------------------------------------------------------------------|
|-------------------------------------------------------------------|Guitar II
|---9--10---9--10---9-----9--10----10--9----9----9--10---9--10---9--|
|-7-------7-------7----8--------8--------10----7-------7-------7----|
|-------------------------------------------------------------------|

Play Riff I 3 times

Now, go back and
Play Riff A 4 Times
Play fill once
Play Riff B twice
Play Riff C 4 Times
Play Riff D once
Play Riff D+E once


Important: The song above is NOT stored on the Chordie server. The original song is hosted at www.xguitar.com. Chordie works as a search engine and provides on-the-fly formatting. Chordie does not index songs against artists/composers will. To remove this song please click here.

This song is displayed as text-only. Transposing and tuning is only available for chordpro-songs.

Login - add to songbook

Rating click stars to rate

Layout
Accuracy

SHARE PAGE  




You need to log in to post comments