Guitar Tabs, Chords and Lyrics


The Only Road    Dropkick Murphys



---------------------------------------------------------
The Only Road - Dropkick Murphys
---------------------------------------------------------

Tabbed by: Lanex13

Intro

e:---------------------------------------------------------
B:-3-------------------3---3-------------------3-----------
G:-4---2-----------2---4---4---2-----------2---4-----------
D:-4---2---4---2---2---4---4---2---4---2---2---4-----------
A:-2---0---4---2---0---2---2---0---4---2---0---2-----------
E:---------2---0-------------------2---0-------------------

e:----------------------------------------------------------------
B:---------------------------------3-3-3-3-3-3-3-3-2-2-2-2-2-2-2-2
G:-4-4-4-4-4-4-4-4-----------------4-4-4-4-4-4-4-4-3-3-3-3-3-3-3-3
D:-4-4-4-4-4-4-4-4-4-4-4-4-4-4-4-4-4-4-4-4-4-4-4-4-4-4-4-4-4-4-4-4
A:-2-2-2-2-2-2-2-2-4-4-4-4-4-4-4-4-2-2-2-2-2-2-2-2-4-4-4-4-4-4-4-4
E:-----------------2-2-2-2-2-2-2-2-----------------2-2-2-2-2-2-2-2

e:----------------------------------------------------------------
B:-3-3-3-3-3-3-3-3-2-2-2-2-2-2-2-2--------------------------------
G:-4-4-4-4-4-4-4-4-3-3-3-3-3-3-3-3-1-1-1-1-1-1-1-1-3-3-3-3-3-3-3-3
D:-4-4-4-4-4-4-4-4-4-4-4-4-4-4-4-4-2-2-2-2-2-2-2-2-4-4-4-4-4-4-4-4
A:-2-2-2-2-2-2-2-2-4-4-4-4-4-4-4-4-2-2-2-2-2-2-2-2-4-4-4-4-4-4-4-4
E:-----------------2-2-2-2-2-2-2-2-0-0-0-0-0-0-0-0-2-2-2-2-2-2-2-2

Verse (The two verses follow the exact same tab.)

e:----------------------------------------------------------------
B:----------------------------------------------------------------
G:-4-4-4-4-2-2-2-2-4-4-4-4-7-7-9-9-4-4-4-4-2-2-2-2----------------
D:-4-4-4-4-2-2-2-2-4-4-4-4-7-7-9-9-4-4-4-4-2-2-2-2-4-4-4-4-4-4-4-4
A:-2-2-2-2-0-0-0-0-2-2-2-2-5-5-7-7-2-2-2-2-0-0-0-0-4-4-4-4-4-4-4-4
E:-------------------------------------------------2-2-2-2-2-2-2-2

e:----------------------------------------------------------------
B:----------------------------------------------------------------
G:-4-4-4-4-2-2-2-2-4-4-4-4-7-7-9-9-4-4-4-4-2-2-2-2----------------
D:-4-4-4-4-2-2-2-2-4-4-4-4-7-7-9-9-4-4-4-4-2-2-2-2-4-4-4-4-4-4-4-4
A:-2-2-2-2-0-0-0-0-2-2-2-2-5-5-7-7-2-2-2-2-0-0-0-0-4-4-4-4-4-4-4-4
E:-------------------------------------------------2-2-2-2-2-2-2-2

e:----------------
B:----------------
G:----------------
D:-2-2-2-2-2-2-2-2
A:-2-2-2-2-2-2-2-2
E:-0-0-0-0-0-0-0-0

Chorus (The two choruses follow the same tab.)

e:----------------------------------------------------------------
B:-3-3-3-3-3-3-3-3-2-2-2-2-2-2-2-2-3-3-3-3-3-3-3-3-2-2-2-2-2-2-2-2
G:-4-4-4-4-4-4-4-4-3-3-3-3-3-3-3-3-4-4-4-4-4-4-4-4-3-3-3-3-3-3-3-3
D:-4-4-4-4-4-4-4-4-4-4-4-4-4-4-4-4-4-4-4-4-4-4-4-4-4-4-4-4-4-4-4-4
A:-2-2-2-2-2-2-2-2-4-4-4-4-4-4-4-4-2-2-2-2-2-2-2-2-4-4-4-4-4-4-4-4
E:-----------------2-2-2-2-2-2-2-2-----------------2-2-2-2-2-2-2-2

e:----------------------------------------------------------------
B:-3-3-3-3-3-3-3-3-2-2-2-2-2-2-2-2--------------------------------
G:-4-4-4-4-4-4-4-4-3-3-3-3-3-3-3-3-1-1-1-1-1-1-1-1-3-3-3-3-3-3-3-3
D:-4-4-4-4-4-4-4-4-4-4-4-4-4-4-4-4-2-2-2-2-2-2-2-2-4-4-4-4-4-4-4-4
A:-2-2-2-2-2-2-2-2-4-4-4-4-4-4-4-4-2-2-2-2-2-2-2-2-4-4-4-4-4-4-4-4
E:-----------------2-2-2-2-2-2-2-2-0-0-0-0-0-0-0-0-2-2-2-2-2-2-2-2

Outro

e:----------------------------------------------------------------
B:----------------------------------------------------------------
G:-4-4-4-4-7-7-7-7---------------2-4-4-4-4-7-7-7-7---------------2
D:-4-4-4-4-7-7-7-7-2-2-2-2-4-2-4-2-4-4-4-4-7-7-7-7-2-2-2-2-4-2-4-2
A:-2-2-2-2-5-5-5-5-2-2-2-2-4-2-4-0-2-2-2-2-5-5-5-5-2-2-2-2-4-2-4-0
E:-----------------0-0-0-0-2-0-2-------------------0-0-0-0-2-0-2--

e:----------------------------------------------------------------
B:----------------------------------------------------------------
G:-4-4-4-4-7-7-7-7---------------2-4-4-4-4-7-7-7-7---------------2
D:-4-4-4-4-7-7-7-7-2-2-2-2-4-2-4-2-4-4-4-4-7-7-7-7-2-2-2-2-4-2-4-2
A:-2-2-2-2-5-5-5-5-2-2-2-2-4-2-4-0-2-2-2-2-5-5-5-5-2-2-2-2-4-2-4-0
E:-----------------0-0-0-0-2-0-2-------------------0-0-0-0-2-0-2--

e:--------------------------
B:-3-----------------3-3-3-3
G:-4---2-----------2-4-4-4-4
D:-4---2---4---2---2-4-4-4-4
A:-2---0---4---2---0-2-2-2-2


Important: The song above is NOT stored on the Chordie server. The original song is hosted at www.xguitar.com. Chordie works as a search engine and provides on-the-fly formatting. Chordie does not index songs against artists'/composers' will. To remove this song please click here.

This song is displayed as text-only. Transposing and tuning is only available for chordpro-songs.

Login - add to songbook

Rating click stars to rate

Layout
Accuracy

SHARE PAGE  




You need to log in to post comments