Guitar Tabs, Chords and Lyrics


Asleep   Godsmack



BAND:GODSMACK
SONG:ASLEEP
ALBUM:THE OTHER SIDE

TUNING:Standard (E,A,D,G,B,E)
	
INTRO/VERSE
   e|--------------------------------------------------|
   B|--------------------------------------------------|
   G|---------4------------------4---------------------|
   D|-------2---2--------3-----2---2-------3----2------|
   A|-----2-------2-----3----2------2----3----2----2---|
   E|--0------------0-3----0---------0-3---2-----------|


CHORUS
   e|--------------------------------------------------|
   B|-------2------------------2-----------------------|
   G|--------------------------------------------------|
   D|-----2---2---------3----2---2---------3----2------|
   A|---2-------2-----3----2-------2-----3----2---2----|
   E|-0-----------0-3----0-----------0-3---2-----------|

This is a very good song. I think this is 100%
I DON\\'T KNOW ABOUT THE CHORUS BUT IT SOUNDS OK



Important: The song above is NOT stored on the Chordie server. The original song is hosted at www.xguitar.com. Chordie works as a search engine and provides on-the-fly formatting. Chordie does not index songs against artists/composers will. To remove this song please click here.

This song is displayed as text-only. Transposing and tuning is only available for chordpro-songs.

Login - add to songbook

Rating click stars to rate

Layout
Accuracy

SHARE PAGE  




You need to log in to post comments