Chordie logo

Freakin' Out    Graham Coxon



Graham Coxon

Intro/Verse
e-------------------------------------
B---------------22222-----------------
G---99999---9---22222-----9---99999---
D---97777---9---22222-----9---99999---
A---77777---6-------------6---77777---
E-------------------------------------

Chorus
e-------------------------------------
B-------------------------------------
G-9------------------8----------------
D-9------7-----------8----------5-----
A-7------7-----------6----------5-----
E--------5----------------------3-----


e------------------
B------------------
G---5----8-----9---
D---5----8-----9---
A---3----6-----7---


Important: The song above is NOT stored on the Chordie server. The original song is hosted at www.xguitar.com. Chordie works as a search engine and provides on-the-fly formatting. Chordie does not index songs against artists/composers will. To remove this song please click here.

This song is displayed as text-only. Transposing and tuning is only available for chordpro-songs.

Login - add to songbook

Rating click stars to rate

Layout
Accuracy

SHARE PAGE  

You need to log in to post comments