Chordie logo

Cause We've Ended as Lovers    Jeff Beck



Cause We've Ended As Lovers
 Jeff Beck

Music by Stevie Wonder - Trans. Michael john barranco



E||--8r-------8--------|--10r-------8--------|--10r---------10r-8----|
B||--------------------|---------------------|-----------------------|
G||--------------------|---------------------|-----------------------|
D||--------------------|---------------------|-----------------------|
A||--------------------|---------------------|-----------------------|
E||--------------------|---------------------|-----------------------|



--10r-------8--------|--8r-------8~-------|--8r-------8~-------|
---------------------|--------------------|--------------------|
---------------------|--------------------|--------------------|
---------------------|--------------------|--------------------|
---------------------|--------------------|--------------------|
---------------------|--------------------|--------------------|



--10b------10r8--------|---------------------|------10--8-8~-------------------|
-----------------------|---------------------|----x----------------------------|
-----------------------|--10----9------------|--x-------------7r7--5-5~--------|
-----------------------|--10-----------------|---------------------------x-3/6-|
-----------------------|--10-----------------|---------------------------------|
-----------------------|--8------------------|---------------------------------|



--6--4-4--------------------|--3--1-1-------------------|
------------4---------------|-----------xt--------------|
--------------5/7\-5-5------|---------------------------|
--------------------------3-|-------------5r5--3--5--6--|
----------------------------|---------------------------|
----------------------------|---------------------------|



--------------------------|--10--8-10b--------------------|
--5/6~---4/5--------------|-------------x-----------------|
--------------------------|---------------7r7--5-5~-------|
--------------------------|---------------------------3/6-|
--------------------------|-------------------------------|
----------------------4-8-|-------------------------------|



--6--4-4~-----------------|--3--1~-1------------------|
------------4-------------|---------------------------|
---------------5r-5-5~----|-----------x---------------|
--------------------------|-------------5r5--3--5--6--|
--------------------------|---------------------------|
--------------------------|---------------------------|



-------------------------|-------------------------|-----------------------|
--6----5-----------------|-------------------------|-----------------------|
--5----5-------------5---|--9r--7----7b----------5-|--7~------8------------|
--5--------------5-7---7-|--------------7~-----7---|------------6~-----5\3-|
-------------------------|-------------------------|-----------------------|
-------------------------|-------------------------|-----------------------|



----------------------------|---------------------------------|
----------------------13-15r|--15b15r15-----15b------------13-|
--5b----5~-------3/14-------|------------------14~------14----|
----------------------------|---------------------------------|
----------------------------|---------------------------------|
----------------------------|---------------------------------|



--------------------------------|-------------------------|
--15-15-13r---13----------------|--13r---13~--------------|
------------------13~-----12-10-|-------------------------|
--------------------------------|-------------------------|
--------------------------------|-------------------------|
--------------------------------|---------------------2/8-|



--10b----------------------|--4-6--4-4~----------------------|
--------13r11--------------|---------------4-----------------|
--------------7r--7--5~----|-----------------5r-5r-5r-5r-5---|
---------------------------|-------------------------------3-|
---------------------------|---------------------------------|
---------------------------|---------------------------------|



--3--1--------------------|-------------------------|
--------------------------|--6r--6-5~---------------|
--------------------------|-------------------------|
-----------5r5----3---5/6-|-------------------------|
--------------------------|-------------------------|
--------------------------|-----------------18\8----|



------10--8-10b-----------------|-------6--4--4~----------------|
----x---------------------------|-----------------4-------------|
--x----------------7r7-5/7\5----|-------------------5r--5-5~----|
--------------------------------|--3/6------------------------x-|
--------------------------------|-------------------------------|
--------------------------------|-------------------------------|



--3--1~------------------|---------------------------|-------------------------|
-------------------------|--5/6---5~---------------5-|-------------------------|
-------------------------|---------------------5-7---|--7r7~-7b-x------------5-|
-----------5r5--3--5/-6--|-----------------5-7-------|------------7~-------7---|
-------------------------|---------------------------|-------------------------|
-------------------------|---------------------------|-------------------------|



------------------------|---------------------------|
------------------------|------------------------13-|
--7--5r----5------------|--5r---5/---7r---7r7/12----|
-------------6~-----5\3-|---------------------------|
------------------------|---------------------------|
------------------------|---------------------------|



------------------------------|----------------------------|
--17r15-----15b------------13-|--15~-----15b---------------|
----------------14~-----14----|--------------13~-----12\10-|
------------------------------|----------------------------|
------------------------------|----------------------------|
------------------------------|----------------------------|



-----------------------------|---------------------------------------|
--13r-13r-13r-13-------------|---------------------------------------|
---------------------------x-|--------------8b----10/12------------8-|
---------------------------x-|-------8-10~----10--------10~-----10---|
-----------------------------|--10-8---------------------------------|
-----------------------------|---------------------------------------|



--------------------------|-----------------------------|
--------------------------|--6--------------------------|
--11b-----12r10~10~-------|----9r-----8~--7-8-7---------|
----------------x~--------|-----------x~----------------|
--------------------------|-----------------------------|
--------------------------|----------------------13\1-1-|



-------------------------------|----------------------|----------------------|
-------------------------------|----------------------|----------------------|
-------------------------------|----------------------|--------------------3-|
------3/5-3b-------------------|--1-------------------|--1---------------5---|
--------------5--3\1-------1-3-|----3~------------1-3-|----3~----------------|
--3~-----------------3/x-0-----|----------------------|----------------------|



------------------------|---------------------------------------|
--------4~-6~-6~---8~---|--6~-7--8bx---------3---------3/-------|
--3~-5~-----------------|------------x-x-2/4---5/7-5\4---4------|
------------------------|--------------x-------------------5/10-|
------------------------|---------------------------------------|
------------------------|---------------------------------------|



--8-----------8------11b---------------------|----------------------------|
----11-8----8---11-8-----------------16--18--|--18b-----------20r19b20r18-|
---------10b------------------10/17----------|----------------------------|
---------------------------------------------|----------------------------|
---------------------------------------------|----------------------------|
---------------------------------------------|----------------------------|



------------------------------------------|---------------18---------------|
--20~--19b20~--20r19b20~--20b19b20--18b20r|--19----------------------------|
------------------------------------------|------------15------------------|
------------------------------------------|--------------------------------|
------------------------------------------|--------------------------1-3-1-|
------------------------------------------|------------------15\-1-3-------|



-------------------------|---------------------------|
-------------------------|---------------------------|
-------------------------|-----------------------3-5-|
-------------------------|-------------------3/5-----|
--6r----6b---------3-3---|--x-6-6r-----6~------------|
---------------3-6-----6-|---------------------------|



---------------------------------|---------------------------------------|

---------------------------------|---------------------------------------|
--3r-3-5r5~----------------------|---------------------------------------|
--------------5\3-1-3--1-3--1-3--|----4/5-4~--5/7-5~---7-9-7~-9/10~9--10-|
---------------------------------|---------------------------------------|
---------------------------------|--3-------3--------5-------------------|



--8-------------8-----------8-----------8-------------------|
----11-8------8---11-8----8---11-8----8---11-8--15b---11-13-|
---------10b-----------10b---------10b----------------------|
------------------------------------------------------------|
------------------------------------------------------------|
------------------------------------------------------------|



-----------------------------------------11------11-----------------|
--13~11-13-13~11-13-13-11-13-13-13-11-11----14b-----14b11-----------|
--------------------------------------------xb------------12~--10\8-|
--------------------------------------------------------------------|
--------------------------------------------------------------------|
--------------------------------------------------------------------|



--------------------------------|-----------------------------|
--------------------------------|-----------------------------|
--11b------13r11r10r8-10-8\-7-8-|--7\5--4-4\2/4--4/7-6~-6/-x--|
--------------------------------|-----------------------------|
--------------------------------|-----------------------------|
--------------------------------|-----------------------------|



----8-11-8-12r------11------8-11-8----8--|--11-8~-------------------------|
--8--------------------8-11--------11----|-----------------x--------------|
-----------------------------------------|-----------12\10-8-10/12~----0--|
-----------------------------------------|-----------------------------x--|
-----------------------------------------|--------------------------------|
-----------------------------------------|--------------------------------|



--------------------------------------------------------------------------------
--------------------------------------------------------------------------------
--12-13-12\11-12-11\10-11-10\9-10-9\8-9-8\7-8-7\6-7-6\5-6-5\4-5-4\3-4-3\2-3-2\1-
--------------------------------------------------------------------------------
--------------------------------------------------------------------------------
--------------------------------------------------------------------------------



-----------------------------|----10--8--8b11--------------------|
-----------------------------|-----------------------------------|
-----------------------------|-----------------7r-7-5---5~-------|
----5-4---5/7-5--------x-----|------------------------x------3/6-|
-----------------------x-----|-----------------------------------|
--3-----3----------------x-x-|-----------------------------------|



--6--6--5--4-------------------|------3-2-1--------------------|
---------------4---------------|-------------------------------|
-----------------5r-5b-6r-5~---|--------------x----------------|
-------------------------------|--2/3-----------5r5---3--5--6--|
-------------------------------|-------------------------------|
-------------------------------|-------------------------------|



------------------------------|---------------------|
--8r-6-5-6-5~-----------------|-----------------1-3-|
----------------------5-7-5-7r|--------------7------|
------------------5-7---------|---------------------|
------------------------------|---------------------|
------------------------------|---------------------|



---------------------------|-------------------------------------|
---------------------------|-------------------------------------|
--8~------8-7-5------------|--5/7---5-7-5~------------5-7-5---12-|
----------------6~-----5\3-|----------------5-7-5~--7-------7\---|
---------------------------|-------------------------------------|
---------------------------|-------------------------------------|



----------------------------------|
--13-15-15~----15r-15----------13-|
----------------------14----14----|
----------------------------------|
----------------------------------|
----------------------------------|



-----------------------------------------------|------------------------|
--16-15-16-15-16-15-16-15~--13-----x-----------|--13r---13~-------------|
-------------------------------13~-13----12\10-|------------------------|
-----------------------------------------------|------------------------|
-----------------------------------------------|------------------------|
-----------------------------------------------|--------------------x-8-|



--10--8--10b-----------------|--6--4--6--4-----------------------|
-----------------------------|----------------4------------------|
---------------7r-7--5r-5----|------------------5/7\-5--7\-5~----|
-----------------------------|---------------------------------x-|
-----------------------------|-----------------------------------|
-----------------------------|-----------------------------------|



--3-1-1~-------------------|-----------------------------|
---------------------------|--8r--6-5--------------------|
---------------------------|--------------5-7-5----------|
-----------5r5--3-3--5--6--|--------------------5-7-5----|
---------------------------|-----------------------------|
---------------------------|-----------------------------|



--22r----21r-21r-21r-20-----------|-------------------------|
----------------------------------|-------------------------|
--------------------------8\7-5-7r|--7-5-5~----7b7-5-5------|
----------------------------------|-------------------------|
----------------------------------|-------------------------|
----------------------------------|-------------------------|



------------3~--------------|--------------------|------------------||
--------4-------------6r6-4-|--6----5~-----------|------------------||
----3-5---------------------|--------------------|------------------||
--5-------------------------|--------------------|------------------||
----------------------------|--------------------|------------------||


Important: The song above is NOT stored on the Chordie server. The original song is hosted at www.xguitar.com. Chordie works as a search engine and provides on-the-fly formatting. Chordie does not index songs against artists/composers will. To remove this song please click here.

This song is displayed as text-only. Transposing and tuning is only available for chordpro-songs.

Login - add to songbook

Rating click stars to rate

Layout
Accuracy

SHARE PAGE  

You need to log in to post comments