Greensleeves

Jeff Beck

 DmDm/CDm/BDm/BbAsus4
  + . + . + .   + . + . + .   + . + . + .   + . + . + .   + . + . + .
|-------1-----|-------1-----|-------------|-------1-----|---------0~~-|
|-----3---3---|-----3---3---|-------3-----|-----3---3---|-------3-----|
|---2-------2-|---2---------|-----2---2---|---2---------|-----2-------|
|-0-----------|-------------|---0---------|-------------|---2---------|
|-------------|-3---------3-|-2---------2-|-1---------1-|-0-----------|
|-------------|-------------|-------------|-------------|-------------|


part 1:

 DmGadd9CAm
  + . + . + .   + . + . + .   + . + . + .   + . + . + .
|-1---1---3---|-5-------7-5-|-3---3---0---|-----------0-|
|-3---3---3---|-0-----------|-1---1-------|-1-------3---|
|-------------|-------------|-------------|-2---2-------|
|-0-----------|-------------|-------------|-------------|
|-------------|-------------|-3-----------|-0-----------|
|-------------|-3-----------|-------------|-------------|


 DmE7sus4AmAm/G
  + . + . + .   + . + . + .   + . + . + .   + . + . + .
|-1-----------|-------------|-0-----------|---------0---|
|-3---3---3---|-3---3---1-3-|-----1---1---|-----1-------|
|-----2---2---|-2-----2-----|---------2---|---2---------|
|-0-----------|-------------|-------------|-------------|
|-------------|-------------|-0-----------|-------------|
|-------------|-0-----------|-------------|-3-----------|


 DmGadd9CAm
  + . + . + .   + . + . + .   + . + . + .   + . + . + .
|-1---1---3---|-5-------7-5-|-3---3---0---|-----------0-|
|-3---3---3---|-0-----------|-1---1-------|-1-------3---|
|-------------|-------------|-------------|-2---2-------|
|-0-----------|-------------|-------------|-------------|
|-------------|-------------|-3-----------|-0-----------|
|-------------|-3-----------|-------------|-------------|


 DmADmDm
  + . + . + .   + . + . + .   + . + . + .   + . + . + .
|-1---010-----|-------------|-----1p0-----|-------------|
|-----hp--3---|-2-------0-2-|-3-------3---|-3---3---5---|
|-------------|-2-----------|---2-------2-|-2---2-------|
|-0---2---3---|-------------|-0-----------|-0-----------|
|-------------|-0---0-------|-------------|-------------|
|-------------|-------------|-------------|-------------|


part 2:

 F/CF/CEm7/BAm
  + . + . + .   + . + . + .   + . + . + .   + . + . + .
|-8-----------|-8-----------|-------------|---0-------0-|
|---------10--|-----12--10--|-8-10-8--9---|-1---1---3---|
|-----10------|-------------|-------------|-2-----2-----|
|-----10------|-------------|-------------|-------------|
|-------------|-------------|-------------|-0-----------|
|-8-----------|-8-----------|-7-----------|-------------|


 DmE7sus4AmAm/G
  + . + . + .   + . + . + .   + . + . + .   + . + . + .
|-1-----------|-------------|-0-----------|---------0---|
|-3---3---3---|-3---3---1-3-|-----1-------|-------1-----|
|-----2---2---|-2-----2-----|---------2---|-----2-------|
|-0-----------|-------------|---2---2---2-|---2---------|
|-------------|-------------|-0-----------|-------------|
|-------------|-0-----------|-------------|-3-----------|


 F/CF/CEm7/BAm
  + . + . + .   + . + . + .   + . + . + .   + . + . + .
|-8---------8-|-8-----------|-------------|---0-------0-|
|---------10--|---------1210|-8-108---9---|-1---1---3---|
|-------10----|-------10----|-------------|-2-----2-----|
|-----10------|-----10------|-------------|-------------|
|---8---------|---8---------|-------------|-0-----------|
|-8-----------|-8-----------|-7-----------|-------------|


 DmADmDm
  + . + . + .   + . + . + .   + . + . + .   + . + . + .
|-1---0-------|-------------|-----0-------|-0-------0---|
|---------3---|-2-------0-2-|-3-------3---|-----3-------|
|-------------|-2-----------|-2-----------|-------------|
|-0---2---3---|-------------|-0-----------|-------------|
|-------------|-0---0-------|-------------|-------------|
|-------------|-------------|-------------|-------------|


repeat part 1 with little variations, ending with
(last 2 bars, instead of Dm):

 DD
|-3---2-0-2-3-|-2hp3p2~~~~~-|
|-3-3---------|-3-----------|
|-------------|-2-----------|
|-0-----------|-0-----------|
|-------------|-------------|
|-------------|-------------|



A Am Asus4 C D Dm Dm/B Dm/Bb Dm/C E7sus4 Em7/B F/C Gadd9
variations - click chord images
Transpose chords:
Tuning:
Cool service:
View: Size:
A  A  A
Rating:
Layout:
  • Currently 1/5 Stars.
  • 1
  • 2
  • 3
  • 4
  • 5
 
Accuracy:
  • Currently 1/5 Stars.
  • 1
  • 2
  • 3
  • 4
  • 5
 
click stars to rate
Chordie recommends:
Get acoustic guitar lessons and electric guitar lessons at JamPlay.com
Songbook:
Login to add this song to your songbook
Support the artist
Preview/buy this song
MSN Music
Why this non-profit ad?

 
login to add comments/video/corrections