Chordie logo

Can You See Me   Jimi Hendrix



Jimi Hendrix - Can You See Me
Tabbed By: Jimi Hendrix2
Email: arturoescajeda@msn.com

Tuning: Standard (E A D G B E)

Jimi Hendrix
Nov 1942- Sept 1970
May His sights and sound Live Forever

                    2X
E|--------------|-----22------------22-----|---2--------------------||
B|--------------|-----22---2-2-2----22-----|---2--------------------||
G|--------------|-----33---2-2-2----33---11|---3-------------4bend--||
D|--------------|-----44---2-2-2----44---22|---4--------------------||
A|--------------|-----44------------44---22|---4--------------------||
E|--------15/---|-----22------------22-----|---2--------------------||

1st Chorus
Plam Mute        2X
E|-----2-2-2-2-2-2--|---22------------22-----|----2-2-2-2-2-2-------||
B|-----2-2-2-2-2-2--|---22---2-2-2----22-----|----2-2-2-2-2-2-------||
G|-----3-3-3-3-3-3--|---33---2-2-2----33--11-|----3-3-3-3-3-3-------||
D|-----4-4-4-4-4-4--|---44---2-2-2----44--22-|----4-4-4-4-4-4-------||
A|-----4-4-4-4-4-4--|---44------------44--22-|----4-4-4-4-4-4-------||
E|-----2-2-2-2-2-2--|---22------------22-----|----2-2-2-2-2-2-------||

     2x
E|--22---------22----|-2--------------------------------------------||
B|--22---------22----|-2--------------------------------------------||
G|--33--2-2-2--33-11-|-3--------------------------------------------||
D|--44--2-2-2--44-22-|-4-----4--7--9--7--4444444-------4Bend--------||
A|--44--2-2-2--44-22-|-4-----4--7--9--7--4444444--------------------||
E|--22---------22----|-2-----2--5--7--5--2222222--------------------||

2nd Chours
Plam Mute        2X
E|-----2-2-2-2-2-2--|---22------------22-----|----2-2-2-2-2-2-------||
B|-----2-2-2-2-2-2--|---22---2-2-2----22-----|----2-2-2-2-2-2-------||
G|-----3-3-3-3-3-3--|---33---2-2-2----33--11-|----3-3-3-3-3-3-------||
D|-----4-4-4-4-4-4--|---44---2-2-2----44--22-|----4-4-4-4-4-4-------||
A|-----4-4-4-4-4-4--|---44------------44--22-|----4-4-4-4-4-4-------||
E|-----2-2-2-2-2-2--|---22------------22-----|----2-2-2-2-2-2-------||

     2x
E|--22---------22----|-2--------------------------------------------||
B|--22---------22----|-2--------------------------------------------||
G|--33--2-2-2--33-11-|-3--------------------------------------------||
D|--44--2-2-2--44-22-|-4-----4--7--9--7--4444444-------4Bend--------||
A|--44--2-2-2--44-22-|-4-----4--7--9--7--4444444--------------------||
E|--22---------22----|-2-----2--5--7--5--2222222--------------------||

3rd Chorus
Plam Mute        2X
E|-----2-2-2-2-2-2--|---22------------22-----|----2-2-2-2-2-2-------||
B|-----2-2-2-2-2-2--|---22---2-2-2----22-----|----2-2-2-2-2-2-------||
G|-----3-3-3-3-3-3--|---33---2-2-2----33--11-|----3-3-3-3-3-3-------||
D|-----4-4-4-4-4-4--|---44---2-2-2----44--22-|----4-4-4-4-4-4-------||
A|-----4-4-4-4-4-4--|---44------------44--22-|----4-4-4-4-4-4-------||
E|-----2-2-2-2-2-2--|---22------------22-----|----2-2-2-2-2-2-------||

     2x
E|--22---------22----|-2--------------------------------------------||
B|--22---------22----|-2--------------------------------------------||
G|--33--2-2-2--33-11-|-3--------------------------------------------||
D|--44--2-2-2--44-22-|-4-----4--7--9--7--4444444-------4Bend--------||
A|--44--2-2-2--44-22-|-4-----4--7--9--7--4444444--------------------||
E|--22---------22----|-2-----2--5--7--5--2222222--------------------||

4th Chours
Plam Mute        2X
E|-----2-2-2-2-2-2--|---22------------22-----|----2-2-2-2-2-2-------||
B|-----2-2-2-2-2-2--|---22---2-2-2----22-----|----2-2-2-2-2-2-------||
G|-----3-3-3-3-3-3--|---33---2-2-2----33--11-|----3-3-3-3-3-3-------||
D|-----4-4-4-4-4-4--|---44---2-2-2----44--22-|----4-4-4-4-4-4-------||

A|-----4-4-4-4-4-4--|---44------------44--22-|----4-4-4-4-4-4-------||
E|-----2-2-2-2-2-2--|---22------------22-----|----2-2-2-2-2-2-------||

     2x
E|--22---------22----|
B|--22---------22----|
G|--33--2-2-2--33-11-|
D|--44--2-2-2--44-22-|Let last chord ring
A|--44--2-2-2--44-22-|


Important: The song above is NOT stored on the Chordie server. The original song is hosted at www.xguitar.com. Chordie works as a search engine and provides on-the-fly formatting. Chordie does not index songs against artists/composers will. To remove this song please click here.

This song is displayed as text-only. Transposing and tuning is only available for chordpro-songs.

Login - add to songbook

Rating click stars to rate

Layout
Accuracy

SHARE PAGE  



You need to log in to post comments