""; ?> Remember by Jimi Hendrix - guitar chords, guitar tabs and lyrics - chordie

Remember

Jimi Hendrix


Remember
Jimi Hendrix Guitar 1
E||-------------------------------|---------------------------------| B||----5/7\5/-7--5----------------|--------------10-10-8------------| G||----4/6\4/-6--4h6p4----4-------|---------7/9--9--9--7--7\--------| D||--------------------7-----4----|------7--9/11-------9--7\-----7\-| A||-------------------------------|--4/9---------------------3/9----| E||-------------------------------|---------------------------------|
----------------------------|-----------------------------| --------5-------------------|--------5--------------------| --------6-------------------|--------6--------------------| --------7-------------------|--------7--------------------| ------------------7--9-7-9\-|-------------------7--9-7-9--| --5--5-----x--7/9-----------|--5--5-----5-5-7/9-----------|
-------------------------------|--------------------------------| -------------------------------|--------------------------------| -------9----9------------------|--------x-----------------------| -------9----9------9--11-9-11--|--------x-----------9--11-9-11\-| --7~------7---9/11-------------|--7--7-----7-7-9/11-------------| -------------------------------|--------------------------------|
----------------------------|----------------------------| ----------------------------|----------------------------| --------7--7---------9------|--------7--7---------9------| --------7--7------7--9-7-9\-|--------7--7------7--9-7-9\-| --5--5--------7/9-----------|--5--5--------7/9-----------| ----------------------------|----------------------------|
-----------------------------|--------------------------------| --------5--------------------|--------------------------------| --6--6--6--------------------|--------9--------------11-------| --7--7--7--------------------|--------9-----------9--11-9-11\-| --x--x-------------7--9-7-9--|--7--7-----7-7-9/11-------------| --5--5-----5-0-7/9-----------|--------------------------------|
--------------------------------|-----------------------------| --------------------------------|-----------------------------| --------9--9--------------------|-----------------------------| --------9--9-7------9--11-9-11\-|--------7--------------------| --7--7---------9/11-------------|--------7----------7--9-7-9\-| --------------------------------|--5--5-----5-5-7/9-----------|
---------------------------|----------------------------| ---------------------------|--------5-------------------| ---------------------------|--------6-------------------| --------7------------------|--------7-------------------| ---------------7----9--7h9-|------------------7--9-7-9\-| --5--5-----7/9-------------|--5--5-----x--7/9-----------|
-----------------------------|--------------------------------| --------5--------------------|--------------------------------| --------6--------------------|--------9----9------------------| --------7--------------------|--------9----9------9--11-9-11\-| -------------------7--9-7-9--|--7~-7-----7---9/11-------------| --5--5-----5-5-7/9-----------|--------------------------------|
--------------------------------|-----------------------------| --------------------------------|-----------------------------| --------9-----------------------|--------7--7----------9------| --------9-----------9--11-9-11\-|--------7--7-------7--9-7-9--| --7~-7-----7-7-9/11-------------|--5--5-------5-7/9-----------| --------------------------------|-----------------------------|
-----------------------------|-----------------------------| -----------------------------|--------5--------------------| --------7--7----------9------|--------6--------------------| --------7--7-------7--9-7-9\-|--------7--------------------| --5--5-------5-7/9-----------|-------------------7--9-7-9--| -----------------------------|--5--5-----5-5-7/9-----------|
--------------------------------|--------------------------------| --------------------------------|--------------------------------| --------9--------------11-------|--------9--9--------------------| --------9-----------9--11-9-11--|--------9--9-7------9--11-9-11\-| --7--7-----7-7-9/11-------------|--7--7---------9/11-------------| --------------------------------|--------------------------------|
-----------------------------|----------------------------| -----------------------------|----------------------------| -----------------------------|----------------------------| --------7--------------------|----------------------------| -------------------7--9-7-9\-|---------------7--7--9p7----| --5--5-----5-7-7/9-----------|--5--5--5--7/9-----------9--|
--------------------------|--------------------------| --9--9--9--9--9--9--9--9--|--9--9--9--9--9--9--9--9--| --9--9--9--9--9--9--9--9--|--9--9--9--9--9--9--9--9--| --9--9--9--9--9--9--9--9--|--9--9--9--9--9--9--9--9--| --7--7--7--7--7--7--7--7--|--7--7--7--7--7--7--7--7--| --------------------------|--------------------------|
--------------------------|--------------------0-----| --------------------------|--------------7--7--x-----| --7--7--7--7--7--7--7--7--|--7--7--7--7--7--7--7-----| --6--6--6--6--6--6--6--6--|--6--6--6--6--6--6--6-----| --7--7--7--7--7--7--7--7--|--7--7--7--7--7--7--7-----| --------------------------|-----------------------0--|
-------------------------------|--------7----------------------| --7-----7----------------------|--7-----7----------------------| --8-----8----------------------|--8-----8----------------------| --9-----9----------------------|--9-----9----------------------| -------------------9--11-9-11--|-------------------9--11-9-11--| -----7-----7--9/11-------------|-----7-----7--9/11-------------|
------------------------------------|------------------------------------| ------------------------------------|------------------------------------| --11-----11-----------11------------|--11-----11-----------11------------| --11-----11-----------11--13-11-13\-|--11-----11-----------11--13-11-13\-| ------9------9--11/13---------------|------9------9--11/13---------------| ------------------------------------|------------------------------------|
--------------------------------|-----------------------------------| --------------------------------|-----------------------------------| --------9-----------------------|--9-----9--------------------------| --------9--9--------9--11-9-11--|--9-----9-----------9--11-9--------| --7--7-----7-7-9/11-------------|-----7-----7-7-9/11---------11\9-9-| --------------------------------|-----------------------------------|
---------------------------------|-------------------------------------| --------7------------------------|-------------------------------------| --------8------------------------|--------11--11-----------------------| --------9---------------11-9-11--|--------11--11-9-------11--13-11-13\-| ---------------------9--11-9-11--|--9--9---------9-11/13---------------| --7--7-----7-7-10/11-------------|-------------------------------------|
--------------------------------------|--------------------------------| --------------------------------------|--------7-----------------------| --------------------------------------|--------8-----------------------| -----11--11--11-9-------11--13-11-13\-|--------9-----------------------| --9--9---9--------11/13---------------|--------------------9--11-9-11\-| --------------------------------------|--7--7-----7-7-9/11-------------|
--------------------------------|--------------------------------| --------------------------------|--------------------------------| --------------------------------|--------------------------------| --------------------------------|--------9-----------------------| ----------------9--9--9h11-9h11-|--------------------9--11-9-11--| --7--7--7--9/11-----------------|--7--7-----7-x-9/11-------------|
-------------------------------|-------------------------------------| --7----------------------------|-------------------------------------| --8----------------------------|--------11--11-----------------------| --9-----9----------------------|--------11--11---------11--13-11-13\-| -------------------9--11-9-11--|--9--9---------9-11/13---------------| -----7-----7--9/11-------------|-------------------------------------|
-------------------------------------|--------------------------------| -------------------------------------|--------------------------------| --------11--11-----------------------|--------9--9--------------------| --------11--11---------11--13-11-13\-|--------9--9--------9--11-9-11\-| --9--9---------9-11/13---------------|--7--7-------7-9/11-------------| -------------------------------------|--------------------------------|
--------------------------------|--------------------------------| --------------------------------|--------7-----------------------| --------9--9--------------------|--------8-----------------------| --------9--9--------9--11-9-11\-|--------9-----------------------| --7--7-------7-9/11-------------|--------------------9--11-9-11--| --------------------------------|--7--7-----7-7-9/11-------------|
------------------------------------|------------------------------------| ------------------------------------|------------------------------------| --------11--11----------------------|--------11--11----------------------| --------11--11--------11--13-11-13--|--------11--11--------11--13-11-13--| --9--9----------11/13---------------|--9--9----------11/13---------------| ------------------------------------|------------------------------------|
--------------------------|--------------------------| --------------------------|--------------------------| --------------------------|--------------------------| --------------------------|--------------------------| --------------------9--9--|--9--9--9--9--9--9--9--9--| --7--7--7--7--7--7--7--7--|--7--7--7--7--7--7--7--7--|
--8------8---------------------------|---------8---------------------------| --8------8---------------------------|--8------8---------------------------| --9------9---------------------------|--9------9---------------------------| --10-----10----------------------10--|--10-----10----------------------10--| -----------------------10--10h12-----|-----------------------10--10h12-----| ------8------8-8-10/12---------------|------8------8-8-10/12---------------|
--------------------------------------|--------------------------------------| --------------------------------------|--------------------------------------| --12------12----------------------12--|--12------12----------------------12--| --12------12--12--------12--12h14-----|--12------12------------12--12h14-----| --10--10--10--10--12/14---------------|--10--10--10--10--12/14---------------| --------------------------------------|--------------------------------------|
--------------------------------------|-------------------------------------| --------------------------------------|-------------------------------------| ----------------------------12--------|---------10----------------12--------| --------10--10----------10--12-10-12--|--10-------------------10--12-10-12--| --8--8--8---8--10-10/12---------------|--8---8------8-8-10/12---------------| --------------------------------------|-------------------------------------|
------------------------------------|---------------------------------------| --------8---------------------------|----------12---------------------------| --------9---------------------------|----------12---------------------------| --------10--------------------------|----------12--12-x-------12--14-12-14--| ----------------------10--12-10-12--|--10--10------10-x-12/14---------------| --8--8------8-8-10/12---------------|---------------------------------------|
---------------------------------------|-----------------------------------| ----------12---------------------------|-----------------------------------| ----------12---------------------------|-----------------------------------| ----------12--12-x-------12--14-12-14--|-----------------------------------| --10--10------10-x-12/14---------------|-------------0-------10--12-10-----| ---------------------------------------|--8--8--8--8---10/12-----------12\-|
---------------------------------|--------------------------| ---------------------------------|--------------------------| ---------------------------------|--------------------------| ---------------------------------|--------------------------| -----------------10--10--12--10\-|--------------------------| --8--8--8--10/12-----------------|--3--3--3--3--3--3--3--3--|
---------------------------|--------------------------| --3------------------------|--------------------------| --4------------------------|--------------------------| --5----x-------------------|--------------------------| -------x----------------5--|--5--5--5--5--5--5--5--5--| -----3---3--3--3--3--3--3--|--3--3--3--3--3--3--3--3--|
---------------------------|---------------------------| ---------------------------|--------------3--3--3--3-3-| ---------------------------|--------------4--4--4--4-4-| ---------------------------|--------------5--5--5--5-5-| --5--5--5--5--5--5--5--5-5-|--5--5--5--5--5--5--5--5-5-| --3--3--3--3--3--3--3--3-3-|--3--3--3--3--3--3--3--3-3-|
---------------------------|--------------------------|----------------------| --3--3--3--3--3--3--3--3-3-|--3--3--3--3--3--3--3--3--|--3--3--3--3----------| --4--4--4--4--4--4--4--4-4-|--4--4--4--4--4--4--4--4--|--4--4--4--4----------| --5--5--5--5--5--5--5--5-5-|--5--5--5--5--5--5--5--5--|--5--5--5--5----------| --5--5--5--5--5--5--5--5-5-|--5--5--5--5--5--5--5--5--|--5--5--5--5----------| --3--3--3--3--3--3--3--3-3-|--3--3--3--3--3--3--3--3--|--3--3--3--3----------|
------------------|| ------------------|| ------------------|| ------------------|| ------------------|| ------------------||




variations - click chord images
Transpose chords:
Tuning:
Cool service:
View: Size:
A  A  A
Rating:
Layout:
  • Currently 0/5 Stars.
  • 1
  • 2
  • 3
  • 4
  • 5
 
Accuracy:
  • Currently 3/5 Stars.
  • 1
  • 2
  • 3
  • 4
  • 5
 
click stars to rate
Chordie recommends:
Learn how to play guitar at JamPlay.com
Songbook:
Login to add this song to your songbook
Support the artist
Preview/buy this song
MSN Music
Why this non-profit ad?

 
login to add comments/video/corrections