Chordie logo


Let Me Go, Rock And Roll   Kiss



[2 version]

Let Me Go, Rock 'n' Roll by KISS
From the album Hotter Than Hell
--------------------------------------------------------------------



    rhythm 1                                 repeat
e:-------------------------------------------------------|
B:-------------------------------------------------------|
G:--2--2------2------2--2------2------2--2------2------2-|
D:--2--2------2------2--2------2------2--2------2------2-|
A:--0--0--3-4---0-3--0--0--3-4---0-3--0--0--3-4---0-3--0-|
E:-------------------------------------------------------|


  fill 1
e:------5------5------5------5------5------5------5------5-------------------|
B:----5------5------5------5------5------5------5------5---------------------|
G:-7b-----7b-----7b-----7b-----7b-----7b-----7b-----7b------7/5/7/5/7/5/7/5/7|
D:---------------------------------------------------------------------------|
A:---------------------------------------------------------------------------|
E:---------------------------------------------------------------------------|
           
           
           
e:--------|
B:--------|
G:/5/7/5--|
D:--------|
A:--------|
E:--------|

e:---------------------------------------------------------------------------|
B:--------------------------------------------------------------------------8|
G:--2--2------2------2--2------2------2--2------2------2--2------2----------7|
D:--2--2------2------2--2------2------2--2------2------2--2------2----------5|
A:--0--0--3-4---0-3--0--0--3-4---0-3--0--0--3-4---0-3--0--0--3-4---0-3-0-----|
E:---------------------------------------------------------------------------|


  w/fill 2
e:---------------------------------------------------------------------------|
B:-------8----------------------------------------------8-----------6-----8--|
G:--7----7--7-----2--2------2------2--2------2----------7-----7-----5-----7--|
D:--7----5--7-----2--2------2------2--2------2----------5-----7-----3-----5--|
A:--5-------5-----0--0--3-4---0-3--0--0--3-4---0-3-0----------5--------------|
E:---------------------------------------------------------------------------|
                                        

    repeat rhythm 1
e:-------------------------------------|
B:--------------------20b-20b-20b-20b~-|
G:----2-2--2--2-2--2-------------------|
D:----2-2--2--2-2--2-------------------|
A:----0-0--0--0-0--0-------------------|
E:-------------------------------------|


   fill 2
e:---------------------------------------------------------------------------|
B:--20/19/---20-19--19----20/19/---20-19--19---------------------------------|
G:--------19------19--19--------19------19--19--------2-----2---4b-4b-4/2/--2|
D:-------------------------------------------------4-----4----------------4--|
A:---------------------------------------------------------------------------|
E:---------------------------------------------------------------------------|
    

  fill 3 over  rhythm 1
e:-----17-----------17------------17------------17-----------17--17---20-20/1|
B:-17----20-17--17-----20-17--17-----20-17--17-----20-17-17----17------------|
G:-19b----------19b-----------19b-----------19b----------19b-----------------|
D:---------------------------------------------------------------------------|
A:---------------------------------------------------------------------------|
E:---------------------------------------------------------------------------|
                                                  
e:7/---------------------------------------------|
B:--20/19/17-------------------------------------|
G:-----------19-17-----17-----------17-----------|
D:------------------17----17-19--17----17-19-19--|
A:-----------------------------------------------|
E:-----------------------------------------------|


    solo                                             repeat
e:------5-----5-----5-----5----------------------------------|
B:---5--5--5--5--5--5-----5----------------------------------|
G:---7b----7b----7b----7b----7b/7--5/7/5--5~-----------------|
D:--------------------------------------7-----7~--5----------|
A:--------------------------------------------------7-6-5-3--|
E:-----------------------------------------------------------|


                                                         repeat as necessary
e:---------------------------------------12b-12-11-10-8-10/9/8/10/9/8/10/9/8-|
B:-----10-10----10--12b-12b-12-10----10--------------------------------------|
G:--11-------11-------------------11-----------------------------------------|
D:---------------------------------------------------------------------------|
A:---------------------------------------------------------------------------|
E:---------------------------------------------------------------------------|
                                                          
e:-10b-10b-8/10/8----------------------------------------|
B:----------------10-10b(13)-10-8---8-10-10-8---10b(13)~-|
G:--------------------------------9-----------9----------|
D:-------------------------------------------------------|
A:-------------------------------------------------------|
E:-------------------------------------------------------|
                                       
e:-------------------------------------|
B:--------------------------------8---7|
G:--7--7---7---7--7--7--7/9--9----7---7|
D:--5--5---5---5--5--5--5/7--7----5---4|
A:-------------------------------------|
E:-------------------------------------|
===================================================================

LET ME GO (from the KISS-LP "HOTTER THAN HELL")
---------

transcribed by Mark Perillo (mark@kisstabs.com)

Eb Tuning

Key:
/    = slide up
\    = slide down
b    = bend (whole step)
b^   = bend (1/2 step)
b^^  = bend (1 1/2 steps)
pb   = pre-bend
r    = release-bend
r^   = release-bend half-step
h^   = hammer-on
p^   = pull-off
~    = Vibrato
*    = Natural Harmonic

**   = Artificial Harmonic
x    = Muted String (Palm Muting)
X    = Muted String (Fretboard Muting)

"Hotter Than Hell" produced some great guitar work by Frehley and Stanley. There is less 
rhythmic interplay in this song since Ace tends to play "Fill-In" rather than just play a 
slightly different part rhythm wise (which is his normal playing style). Since Paul isn't
singing he tends to do a bit more guitar wise. Ace's solo's are based on the standard
pentatonic/blues position he always uses and his stock licks (3rd string bends, chuck berry
type doublestops and trills). Enjoy!
Intro

Eb|----------------------------------------------------|
Bb|----------------------------------------------------|
Gb|--2-2------2------2------7~-------------------------|
Db|--2-2------2------2---------------------------------|
Ab|--0-0--3-4---0-3--0---------------------------------|
Eb|----------------------------------------------------|
     
Rhythm Fig. 1

Eb|----------------------------------------------------|
Bb|----------------------------------------------------|
Gb|--2-2------2----------------------------------------|
Db|--2-2------2----------------------------------------|
Ab|--0-0--3-4---0-3------------------------------------|
Eb|----------------------------------------------------|
Rhythm Fig. 2

Eb|----------------------------------------------------|
Bb|-------------------------8-----8--------------------|
Gb|--2-2------2------2------7--7--7--7--2-2------2-----|
Db|--2-2------2------2------5--7--5--7--2-2------2-----|
Ab|--0-0--3-4---0-3--0---------5-----5--0-0--3-4---0-3-|
Eb|----------------------------------------------------|
     
Rhythm Fig. 3

Eb|----------------------------------------------------|
Bb|--8-----6--8----------------------------------------|
Gb|--7--7--5--7----2-2---2---2-2-2---7-----------------|
Db|--5--7--3--5----2-2---2---2-2-2---7-----------------|
Ab|-----5----------0-0---0---0-0-0---5-----------------|
Eb|----------------------------------------------------|
                         

Rhythm Fig. 3a

Eb|----------------------------------------------------|
Bb|--8-----6--8----------------------------------------|
Gb|--7--7--5--7----2-----------------------------------|
Db|--5--7--3--5----2-----------------------------------|
Ab|-----5----------0-----------------------------------|
Eb|----------------------------------------------------|

Rhythm Fig. 3b

Eb|----------------------------------------------------|
Bb|--8-----6--8----------------------------------------|
Gb|--7--7--5--7--2-2-----2---------2-------------------|
Db|--5--7--3--5--2-2-----2---------2-------------------|
Ab|-----5--------0-0-3-4---0-3-0---0-------------------|
Eb|----------------------------------------------------|
                 

Rhythm Fig. 3c

Eb|----------------------------------------------------|
Bb|----------------------------------------------------|
Gb|--------------2-----------------2-------------------|
Db|--------------2-----------------2-------------------|
Ab|--------------0-----------------0-------------------|
Eb|----------------------------------------------------|
                 

Rhythm Fig. 4

Eb|----------------------------------------------------|
Bb|----------------------------------------------------|
Gb|--2-2------2----------7--7----2-2------2------------|
Db|--2-2------2----------7--7----2-2------2------------|
Ab|--0-0--3-4---0-3------5--5----0-0--3-4----0-3-------|
Eb|----------------------------------------------------|
             
Eb|----------------------------------------------------|
Bb|--8-----6--8----------------------------------------|
Gb|--7--7--5--7----------------------------------------|
Db|--5--7--3--5----------------------------------------|
Ab|-----5----------------------------------------------|
Eb|----------------------------------------------------|
Eb|----------------------------------------------------|
Bb|---------------------------8---8---7~---------------|
Gb|--7-7--7---7--7--7--7/9-9--7---7---7~---------------|
Db|--5-5--5---5--5--5--5/7-7--5------------------------|
Ab|----------------------------------------------------|
Eb|----------------------------------------------------|

Riff. 1

Eb|----------5-----------------------------------------|
Bb|--------5-------------------------------------------|
Gb|----7b----------5(7)--------------------------------|
Db|----------------------------------------------------|
Ab|----------------------------------------------------|
Eb|----------------------------------------------------|
       
Riff. 2

Eb|----------------------------------------------------|
Bb|---20p^19----20--19----19---------------------------|
Gb|----------19--------19----19--------2~-----2--------|
Db|--------------------------------/4------/4----------|
Ab|----------------------------------------------------|
Eb|----------------------------------------------------|
     
Eb|----------------------------------------------------|
Bb|----------------------------------------------------|
Gb|---4b-4b-4b-r4p^2-----2~----------------------------|
Db|-------------------4--------------------------------|
Ab|----------------------------------------------------|
Eb|----------------------------------------------------|
Riff. 3

Eb|----------------------------------------------------|
Bb|----20b--20b-20b--20b~------------------------------|
Gb|----------------------------------------------------|
Db|----------------------------------------------------|
Ab|----------------------------------------------------|
Eb|----------------------------------------------------|
Riff. 4

Eb|---------17--------------17----17h^20--17h^20p^17---|
Bb|----17-------20p^17--17-----17--------------------20|
Gb|----19b--------------19b----------------------------|
Db|----------------------------------------------------|
Ab|----------------------------------------------------|
Eb|----------------------------------------------------|
       

Eb|----------------------------------------------------|
Bb|-17h^20p^17-----------------------------------------|
Gb|------------19--17h^19p^17----------17--------------|
Db|----------------------------19~--17----17--19-------|
Ab|----------------------------------------------------|
Eb|----------------------------------------------------|
Eb|----------------------------------------------------|
Bb|----------------------------------------------------|
Gb|-----17---------------------------------------------|
Db|--17-----17--19-19----------------------------------|
Ab|----------------------------------------------------|
Eb|----------------------------------------------------|
Solo. 

Eb|------5---------------------------------------------|
Bb|---5--5---------------------5~-/--------------------|
Gb|---7b-----7b-r7p^5h^7p^5----5~-/--------------------|
Db|-------------------------7------7~--5---------------|
Ab|--------------------------------------7-6-5--3~-----|
Eb|----------------------------------------------------|
      
Eb|------5---------------------------------------------|
Bb|---5--5---------------------5~-/--------------------|
Gb|---7b-----7b-r7p^5h^7p^5----5~-/--------------------|
Db|-------------------------7------7~--5---------------|
Ab|--------------------------------------7-6-5--3~-----|
Eb|----------------------------------------------------|
      
Eb|----------------------------------------------------|
Bb|-------10-10-----10--12-12b-12b-r12p^10----10-------|
Gb|---/11--------11------------------------11----------|
Db|----------------------------------------------------|
Ab|----------------------------------------------------|
Eb|----------------------------------------------------|
Eb|-12b-12-11-10-8--10p^9p^8-----10b-10b-8h^10p^10-----|
Bb|----------------------------------------------------|
Gb|----------------------------------------------------|
Db|----------------------------------------------------|
Ab|----------------------------------------------------|
Eb|----------------------------------------------------|
                    
Eb|----------------------------------------------------|
Bb|--10-10b--10p^8---8-10---10-8-----12b^--12b^~-------|
Gb|----------------9--------------9--------------------|
Db|----------------------------------------------------|
Ab|----------------------------------------------------|
Eb|----------------------------------------------------|


Important: The song above is NOT stored on the Chordie server. The original song is hosted at www.xguitar.com. Chordie works as a search engine and provides on-the-fly formatting. Chordie does not index songs against artists/composers will. To remove this song please click here.

This song is displayed as text-only. Transposing and tuning is only available for chordpro-songs.

Login - add to songbook

Rating click stars to rate

Layout
Accuracy

SHARE PAGE  




You need to log in to post comments