See You Tonight

Kiss

--------------


 EmADD/EG
E|--0----0----2---0----3------------------------------|
B|--0----2----3---3----3------------------------------|
G|--0----2----2---2----0------------------------------|
D|--2----2----0---0----0------------------------------|
A|--2----0-------------2------------------------------|
E|--0------------------3------------------------------|


Intro

E|---------3--2------1--0--------3-2-0----------------|
B|--------3--------------------3----------------------|
G|------2----------0---------2------------------------|
D|----0----------2---------0--------------------------|
A|-------------3--------------------------------------|
E|----------------------------------------------------|


SEE YOU TONITE

(Intro)

 EmAEmAD
 I know it's around, I don't have any doubts about that fact

 EmD
I'll see you get it tonight, and if I can't I'll cry and cry

 EmADD/EDD/ED
You won't see me without it and I'll see you tonite                 

 EmAEmAD
 But I know it's around, I don't have any doubts about that fact

 EmD
I'll see you get it tonight, and if I can't I'll cry and cry

 EmADG
You won't see me without it and I'll see you tonite, outside 

 DGDD/EDD/EDD/E
See you tonite, outside, see you tonite               

 EmAEmAD
    Ahhh, Ahhhh Ahhh, Ahhhh   

 EmD
I'll see you get it tonight, and if I can't I'll cry and cry

 EmADG
You won't see me without it and I'll see you tonite, outside 

 DGDD/EDD/EDD/E
See you tonite, outside, see you tonite               

 EmAEmAD
    Ahhh, Ahhhh Ahhh, Ahhhh   

 EmD
I'll see you get it tonight, and if I can't I'll cry and cry

 EmADG
You won't see me without it and I'll see you tonite, outside 

 DGDD/ED
See you tonite, outside, see you tonite       


A D D/E Em G
variations - click chord images
Transpose chords:
Tuning:
Cool service:
View: Size:
A  A  A
Rating:
Layout:
  • Currently 3.4/5 Stars.
  • 1
  • 2
  • 3
  • 4
  • 5
 
Accuracy:
  • Currently 3.2/5 Stars.
  • 1
  • 2
  • 3
  • 4
  • 5
 
click stars to rate
Chordie recommends:
Get acoustic guitar lessons and electric guitar lessons at JamPlay.com
Songbook:
Login to add this song to your songbook
Support the artist
Preview/buy this song
MSN Music
Why this non-profit ad?

 
login to add comments/video/corrections