Guitar Tabs, Chords and Lyrics


Ain't Quite Right   Kiss



AIN'T QUITE RIGHT (from the KISS CD "PAUL STANLEY")
--------------------

Transcribed by Emil Ortenmark, emil@kissasylum.com

Tuned down 1/2-step

Comments: The rhythm doesn't seem like much here but there is actually
quite a lot going on. There's the main clean electric on the left, another
clean electric on the right which does some quick slides, one overdriven
electric which handles the power chords, and finally there's actually a
12-string acoustic which comes in here and there to flesh out the
rhythm. Add one overdriven guitar playing small fills (once again during
the solo) and one more clean electric playing little fills during the
outro and that's quite the guitar army. Of course, the general in charge
is the solo guitar which I think Paul played himself. (There are also some
E-bow playing after the solo and in the outro but I haven't notated that.)

Key:
/    = slide up
\    = slide down
b    = bend (whole step)
b^   = bend (1/2 step)
b^^  = bend (1 1/2 steps)
pb   = pre-bend
r    = release-bend
t    = tap with righthand finger
h    = hammer-on
p    = pull-off
~    = Vibrato
*    = Natural Harmonic

**   = Artificial Harmonic
x    = Dead notes (no pitch)
P.M. = Palm mute (- -> underneath indicates which notes)
(\)  = Dive w\bar
(/)  = Release w\bar
Tp   = Tap w\plectrum


Rhythm Fig. 1a (clean electric)

Eb|----------------------------------------------|
Bb|-----10----8----------------------------------|
Gb|-----9-----7----------------------------------|
Db|--7-------------------------------------------|
Ab|----------------------------------------------|
Eb|----------------------------------------------|



Rhythm Fig. 1b (clean electric)

Eb|----------------------------------------------|
Bb|----13\---------------------------------------|
Gb|----14\---12----------------------------------|
Db|----------12----------------------------------|
Ab|----------------------------------------------|
Eb|----------------------------------------------|



Rhythm Fig. 1c (12-string acoustic)

Eb|-----8-----7----------------------------------|
Bb|-----10----8----------------------------------|
Gb|-----9-----7----------------------------------|
Db|----------------------------------------------|
Ab|----------------------------------------------|
Eb|----------------------------------------------|



Rhythm Fig. 1d (clean electric)

Eb|----------------------------------------------|
Bb|----13\----------------13p12h13---------------|
Gb|----14\---12-----------14p12h14----12---------|
Db|----------12-----------------------12---------|
Ab|----------------------------------------------|
Eb|----------------------------------------------|


Rhythm Fig. 2a (clean electric)

Eb|----------------------------------------------|
Bb|-----10----8-----------7--------5-------------|
Gb|-----9-----7-----------7--------5-------------|
Db|--7--------------------7--------5-------------|
Ab|----------------------------------------------|
Eb|----------------------------------------------|
    < - - 4x - - >


Eb|----------------------------------------------|
Bb|-----10----8----------------------------------|
Gb|-----9-----7----------------------------------|
Db|--7-------------------------------------------|
Ab|----------------------------------------------|
Eb|----------------------------------------------|



Rhythm Fig. 2b (clean electric)

Eb|----------------------------------------------|
Bb|-----10----8-----------7--------5-------------|
Gb|-----9-----7-----------7--------5-------------|
Db|--7--------------------7--------5-------------|
Ab|----------------------------------------------|
Eb|----------------------------------------------|
    < - - 4x - - >


Eb|----------------------------------------------|
Bb|-----10----8----------------------------------|
Gb|-----9-----7----------------------------------|
Db|--7-------------------------------------------|
Ab|----------------------------------------------|
Eb|----------------------------------------------|
   < - - 2x - - >




Rhythm Fig. 2c (clean electric)

Eb|-----------------------10--------8------------|
Bb|----13\----------------10--------8------------|
Gb|----14\---12-----------11--------9------------|
Db|----------12----------------------------------|
Ab|----------------------------------------------|
Eb|----------------------------------------------|
    < - - 4x - - >


Eb|----------------------------------------------|
Bb|----13\---------------------------------------|
Gb|----14\---12----------------------------------|
Db|----------12----------------------------------|
Ab|----------------------------------------------|
Eb|----------------------------------------------|
   < - - 2x - - >




Rhythm Fig. 3

Eb|----------------------------------------------|
Bb|----------------------------------------------|
Gb|--5------4-----------7------9------5----------|
Db|--5------4-----------7------9------5----------|
Ab|--3------2-----------5------7------3----------|
Eb|----------------------------------------------|





Rhythm Fig. 4a

Eb|----------------------------------------------|
Bb|----------------------------------------------|
Gb|--5------------------9--------7---------------|
Db|--5------5-----------9--------7---------------|
Ab|--3------5-----------7--------5---------------|
Eb|---------3------------------------------------|





Rhythm Fig. 4b (clean electric and 12-string acoustic)

Eb|--0-------------------------------------------|
Bb|--1------3-----------8--------7---------------|
Gb|--0------0-----------9--------7---------------|
Db|--2------0-----------9--------7---------------|
Ab|--3------x-----------7--------5---------------|
Eb|---------3------------------------------------|




Rhythm Fig. 5a (clean electric and 12-string acoustic)

Eb|--1-----------------3-------------------------|
Bb|--1-----------------3-------------------------|
Gb|--2-----------------0-------------------------|
Db|--3-----------------0-------------------------|
Ab|--3-----------------x-------------------------|
Eb|--1-----------------3-------------------------|





Rhythm Fig. 5b

Eb|----------------------------------------------|
Bb|--------------------3-------------------------|
Gb|--------------------0-------------------------|
Db|--3-----------------0-------------------------|
Ab|--3-----------------x-------------------------|
Eb|--1-----------------3-------------------------|





Rhythm Fig. 6a (clean electric and 12-string acoustic)

Eb|--1-----------------3-------------------------|
Bb|--1-----------------3-------------------------|
Gb|--2-----------------0-------------------------|
Db|--3-----------------0-------------------------|
Ab|--3-----------------x-------------------------|
Eb|--1-----------------3-------------------------|



Eb|--2-------------------------------------------|
Bb|--3-------------------------------------------|
Gb|--2-------------------------------------------|
Db|--0-------------------------------------------|
Ab|----------------------------------------------|
Eb|----------------------------------------------|






Rhythm Fig. 6b

Eb|----------------------------------------------|
Bb|--------------------3-------------------------|
Gb|--------------------0-------------------------|
Db|--3-----------------0-------------------------|
Ab|--3-----------------x-------------------------|
Eb|--1-----------------3-------------------------|



Eb|----------------------------------------------|
Bb|----------------------------------------------|
Gb|--7-------------------------------------------|
Db|--7-------------------------------------------|
Ab|--5-------------------------------------------|
Eb|----------------------------------------------|


Riff 1 (12-string acoustic)

Eb|--2--------0-------8-----7--------------------|
Bb|--3--------1-------10----8--------------------|
Gb|--2--------0-------9-----7--------------------|
Db|--0--------2----------------------------------|
Ab|-----------3----------------------------------|
Eb|----------------------------------------------|
                    < - 2x - >


Riff 2

Eb|----------------------------------------------|
Bb|----------------------------------------------|
Gb|--pb19^--r19--(17)--19--19p17-----------------|
Db|----------------------------------------------|
Ab|----------------------------------------------|
Eb|----------------------------------------------|
    < - - - - - - 2x - - - - - >


Riff 3

Eb|----------------------------------------------|
Bb|----------------------------------------------|
Gb|----------------------------------------------|
Db|--7--7--7--7--7--7--7--7----------------------|
Ab|----------------------------------------------|
Eb|----------------------------------------------|


Riff 4

Eb|------------------------------------------------------------------|
Bb|------------------------------------------------------------------|
Gb|--7-7p5-----------7-5---------------------------------------------|
Db|--------7-------------7----------------------7-7p5----------------|
Ab|------------------------7-7------------------------7-7------------|
Eb|------------------------------------------------------------------|



Eb|----x----------------------------------------------------3--------|
Bb|---5------5----------------5-5---------------------------3--------|
Gb|--5---------5------------------5----------------------------------|
Db|---------------7~----------------7~-------------------------------|
Ab|------------------------------------------------------------------|
Eb|------------------------------------------------------------------|
     rake



Solo

Eb|----------17------------------------------------------------------|
Bb|--20b~--------20--17--------20--------------20b~----20b---20---17-|
Gb|----------------------19b---------r19p17--------------------------|
Db|------------------------------------------------------------------|
Ab|------------------------------------------------------------------|
Eb|------------------------------------------------------------------|
                        Hold bend - - >



Eb|----------------------------------------------------17------------|
Bb|-------------------------------------------------17----20-17--17--|
Gb|--19b---19---17--19b--r19p17--19~---17-------19b----------19b-----|
Db|------------------------------------------------------------------|
Ab|------------------------------------------------------------------|
Eb|------------------------------------------------------------------|




Eb|--17--------------17--------------17------------------------------|
Bb|-----20p17-----17----20p17-----17----20--20p17-20b~------r20-17---|
Gb|-----------19b-------------19b------------------------------------|
Db|------------------------------------------------------------------|
Ab|------------------------------------------------------------------|
Eb|------------------------------------------------------------------|




Eb|--20b~-----17-----------------------------------------------------|
Bb|--x-----------20b-20b~----20b---20---17---------------------------|
Gb|--x---------------------------------------19b---19---17---19b~----|
Db|------------------------------------------------------------------|
Ab|------------------------------------------------------------------|
Eb|------------------------------------------------------------------|




Eb|---------17--------------17----------------------------------17---|
Bb|--17--17----20p17-----17----20p17-20b~-----20b-r20-17-----17------|
Gb|--19b-------------19b---------------------------------19b---------|
Db|------------------------------------------------------------------|
Ab|------------------------------------------------------------------|
Eb|------------------------------------------------------------------|



Eb|------------------------------------------------------------------|
Bb|--20---------------------------------20---------------------------|
Gb|-------19b-r19p17----19-17------19b------19b~-----19--17--16--17--|
Db|------------------19-------19-------------------------------------|
Ab|------------------------------------------------------------------|
Eb|------------------------------------------------------------------|
                                   Let ring



Eb|-----------------------------------10-----------------------------|
Bb|-----------------------------------13b~-----10--------------------|
Gb|--16--14--16--14--12--14--14\------------------12b--12b~----------|
Db|------------------------------------------------------------------|
Ab|------------------------------------------------------------------|
Eb|------------------------------------------------------------------|




Eb|--5----------5----------------------------------------------------|
Bb|----8p5----5---8p5------------------------------------------------|
Gb|--------7b---------8-7-5---7---5-7--7b-r7p5-7--5\4~---------------|
Db|-------------------------7---7------------------------------------|
Ab|------------------------------------------------------------------|
Eb|------------------------------------------------------------------|




Eb|------------------------------------------------------------------|
Bb|------------------------------------------------------------------|
Gb|--16p12----16~-------12-9----12~-------16------16~----------------|
Db|--------14----------------10----------------14--------------------|
Ab|------------------------------------------------------------------|
Eb|------------------------------------------------------------------|




Eb|------------------------------------------------------------------|
Bb|--12--------------------------------------------------------------|
Gb|--12--------------------------------------------------------------|
Db|--------14--------------------------------------------------------|
Ab|--------------15~-------------------------------------------------|
Eb|------------------------------------------------------------------|



Outro solo

Eb|------------------------------------------------------------------|
Bb|--20b~-------------20b~----20-17----------------------20----------|
Gb|---------------------------------19-19b-r19-17-19b~---------------|
Db|------------------------------------------------------------------|
Ab|------------------------------------------------------------------|
Eb|------------------------------------------------------------------|
                                                  Let ring - >


Eb|------20-20-17----17----17\---------------------------------------|
Bb|---------------20----20---------------20-20-17---20---17~---------|
Gb|----------------------------------------------19----19------------|
Db|------------------------------------------------------------------|
Ab|------------------------------------------------------------------|
Eb|------------------------------------------------------------------|



Eb|------------------------------------------------------------------|
Bb|------------------------------------------------------------------|
Gb|--19-19-17----19----17-19b-r19p17-19~-----19p17-19b-r19p17-19b~---|
Db|-----------19----19-----------------------------------------------|
Ab|------------------------------------------------------------------|
Eb|------------------------------------------------------------------|
                                                              Let ring -


Eb|------------------17--------------17------------------------------|
Bb|--20-----------17----20p17-----17----20p17----------------17------|
Gb|-----------19b-------------19b-------------19b-r19p17---------x---|
Db|------------------------------------------------------------------|
Ab|------------------------------------------------------------------|
Eb|------------------------------------------------------------------|
   - - >


Eb|------------------------------------------------------------------|
Bb|----------------------------20b~-------20b--r20~------------------|
Gb|--19b-r19p17-19~---17---------------------------------------------|
Db|------------------------------------------------------------------|
Ab|------------------------------------------------------------------|
Eb|------------------------------------------------------------------|
                                        2 whole-steps


Eb|---------------------------------17-------------------------------|
Bb|--20b--r20~-------20p17-20-20~------------20p17----17~---20-------|
Gb|------------------------------------------------19----------------|
Db|------------------------------------------------------------------|
Ab|------------------------------------------------------------------|
Eb|------------------------------------------------------------------|
    2 whole-steps


Eb|-------x-----------------------17--------------17-----------------|
Bb|--20b----20p17-20b~-------20b-----20p17-20b~-------20--17---------|
Gb|-----------------------------------------------------------19b----|
Db|------------------------------------------------------------------|
Ab|------------------------------------------------------------------|
Eb|------------------------------------------------------------------|



Eb|-----------------------------------17--------------17-------------|
Bb|-------------------20-----------------20p17-----17----20p17-------|
Gb|--19---17---19b-------19b~------------------19b-------------19p17-|
Db|------------------------------------------------------------------|
Ab|------------------------------------------------------------------|
Eb|------------------------------------------------------------------|
              Let ring ->


Eb|---------------------------------------17-------------------------|
Bb|------------------------------------17----17-20b-----r20-17-------|
Gb|-----17-19--19b-r19p17-19---17--19b-------------------------19p17-|
Db|--19--------------------------------------------------------------|
Ab|------------------------------------------------------------------|
Eb|------------------------------------------------------------------|
                                               2 whole-steps


Eb|--20p17~-----20b---r20-20b~-----20b---r20-20b~--------------------|
Bb|------------------------------------------------------------------|
Gb|------------------------------------------------------------------|
Db|------------------------------------------------------------------|
Ab|------------------------------------------------------------------|
Eb|------------------------------------------------------------------|


Important: The song above is NOT stored on the Chordie server. The original song is hosted at www.xguitar.com. Chordie works as a search engine and provides on-the-fly formatting. Chordie does not index songs against artists'/composers' will. To remove this song please click here.

This song is displayed as text-only. Transposing and tuning is only available for chordpro-songs.

Login - add to songbook

Rating click stars to rate

Layout
Accuracy

SHARE PAGE  




You need to log in to post comments