Chordie logo


Take Me Away (Together as One)   Kiss


------------------------------










Eb|----------------------------------------------------|


Bb|----------------------------------------------------|


Gb|--7---------5----------4----------------------------|


Db|--------------------------------------3-0-----------|


Ab|--5---------3----------2---------1-0-------0-3------|


Eb|----------------------------------------------------|


Eb|----------------------------------------------------|


Bb|----------------------------------------------------|


Gb|--7---------5----------4---------3-----------5------|


Db|----------------------------------------------------|


Ab|--5---------3----------2---------1-----------3------|


Eb|----------------------------------------------------|


Eb|--------5--------------------5----------------------|


Bb|----6---------6----5-----6---------------------/-----|


Gb|--7---7-----7---7------7---7------------------------|


Db|--------------------------------------3-0-----------|


Ab|0--------------------------------1-0------0-3-------|


Eb|----------------------------------------------------|


Eb|--------5--------------------5----------------------|


Bb|----6---------6----5-----6---------3----------3-----|


Gb|--7---7-----7---7------7---7---------2----------2---|


Db|0--------------------------------------0----------0-|


Ab|---------------------------------1-----------3------|


Eb|----------------------------------------------------|


Eb|--------------------------------1-----------3-------|


Bb|-----3----3-------3-----3--------1------------3-----|


Gb|---2--2---------2---2--------------1------------0---|


Db|--0-----0--------------------3-------3------------0-|


Ab|-------------0--------0----1--------------2---------|


Eb|----------------------------------------3-----------|


Eb|--------------------------------1----------1--------|


Bb|-----3----3-------3-----3--------1-----------1------|


Gb|---2--2---------2---2--------------1-----------1----|


Db|--0-----0--------------------3-------3--------------|


Ab|-------------0--------0----1--------------1---------|


Eb|----------------------------------------------------|


Eb|----------------------------------------------------|


Bb|-----1----------------------------------------------|


Gb|-------0--------------------------------------------|


Db|---------2------------------------------------------|


Ab|---3------------------------------------------------|


Eb|----------------------------------------------------|


Eb|----------------------------------------------------|


Bb|----------------------------------------------------|


Gb|--7---------5----------4---------3-----------5------|


Db|----------------------------------------------------|


Ab|--5---------3----------2---------1-----------3------|


Eb|----------------------------------------------------|


Eb|----------------------------------------------------|


Bb|----------------------------------------------------|


Gb|--7---------5----------4---------3-----------5------|


Db|----------------------------------------------------|


Ab|--5---------3----------2---------1-----------3------|


Eb|----------------------------------------------------|


Eb|----------------------------------------------------|


Bb|----------------------------------------------------|


Gb|--7---------5----------4----------------------------|


Db|----------------------------------------------------|


Ab|--5---------3----------2----------------------------|


Eb|----------------------------------------------------|


Eb|--------5--------------------5----------------------|


Bb|----6---------6----5-----6---------3----------3-----|


Gb|--7---7-----7---7------7---7---------2----------2---|


Db|0--------------------------------------0----------0-|


Ab|---------------------------------1-----------3------|


Eb|----------------------------------------------------|


Eb|--------5--------------------5----------------------|


Bb|----6---------6----5-----6---------3----------3-----|


Gb|--7---7-----7---7------7---7---------2----------2---|


Db|0--------------------------------------0----------0-|


Ab|---------------------------------1-----------3------|


Eb|----------------------------------------------------|


Eb|--------5--------------3----------------------------|


Bb|----6---------6----5---3----------------------------|


Gb|--7---7-----7---7------2----------------------------|


Db|0---------------------------------------------------|


Ab|-----------------------2----------------------------|


Eb|----------------------------------------------------|


Eb|-----------------------------3----------------------|


Bb|-----------------------------3----------------------|


Gb|-----------5----2----3----------5---7-7-7-7-7/5-----|


Db|-----------5----2----3----5-----5---7-7-7-7-7/5-----|


Ab|-~~~~~~~~~-3----0----1----5-----3---5-5-5-5-5/3-----|


Eb|-~~~~~~~~~----------------3-------------------------|


Eb|----------------------------------3-----------------|


Bb|----------------------------------3-----------------|


Gb|--3--\7--3--\5----5---2-----3-------5--7-7-7-7-7/5--|


Db|--3--\7--3--\5----5---2-----3---5---5--7-7-7-7-7/5--|


Ab|--1--\5--1--\3----3---0-----1---5---3--5-5-5-5-5/3--|


Eb|--------------------------------3-------------------|


Eb|----------------------------------------------------|


Bb|----------------------------------------------------|


Gb|--3---5---------------------------------------------|


Db|--3---5---------------------------------------------|


Ab|--1---3---------------------------------------------|


Eb|----------------------------------------------------|


Eb|----------------------------------------------------|


Bb|----------------------------------------------------|


Gb|--7---------5----------4---------3-----------5------|


Db|----------------------------------------------------|


Ab|--5---------3----------2---------1-----------3------|


Eb|----------------------------------------------------|


Eb|--------5--------------------5----------------------|


Bb|----6---------6----5-----6---------3----------3-----|


Gb|--7---7-----7---7------7---7---------2----------2---|


Db|0--------------------------------------0----------0-|


Ab|---------------------------------1-----------3------|


Eb|----------------------------------------------------|


Eb|----------------------------------------------------|


Bb|----------------------------------------------------|


Gb|--7---------5----------4----------------------------|


Db|--------------------------------------3-0-----------|


Ab|--5---------3----------2---------1-0-------0-3------|


Eb|----------------------------------------------------|


Eb|----------------------------------------------------|


Bb|----------------------------------------------------|


Gb|--7---------5----------4----------------------------|


Db|----------------------------------------------------|


Ab|--5---------3----------2----------------------------|


Eb|----------------------------------------------------|


Eb|--------5--------------------5----------------------|


Bb|----6---------6----5-----6--------------------------|


Gb|--7---7-----7---7------7---7------------------------|


Db|--------------------------------------3-0-----------|


Ab|0--------------------------------1-0------0-3-------|


Eb|----------------------------------------------------|


Eb|--------5--------------3----------------------------|


Bb|----6---------6----5---3----------------------------|


Gb|--7---7-----7---7------2----------------------------|


Db|0---------------------------------------------------|


Ab|-----------------------2----------------------------|


Eb|----------------------------------------------------|


Eb|----------------------------------------------------|


Bb|----------------------------------------------------|


Gb|----------------------------------------------------|


Db|---8-------------------8------------------8---------|


Ab|---8-------------------8------------------8---------|


Eb|---6-------------------6------------------6---------|


Eb|----------------------------------------------------|


Bb|----------------------------------------------------|


Gb|-------------------5-7~~---/10~~~-------------------|


Db|---------------5-7----------------------------------|


Ab|---------3-5----------------------------------------|


Eb|----3-5---------------------------------------------|


Eb|----------------------------------------------------|


Bb|----------------------------------------------------|


Gb|----------------------------------------------------|


Db|-------------3--0----------------3-0----------------|


Ab|---1**-0-1--------3**~~---1-0-1------3------3-2-0---|


Eb|----------------------------------------------------|


Eb|-----------------------------------8--10~~--/13~~---|


Bb|-----------------------------8--10------------------|


Gb|-----------------------5--7-------------------------|


Db|-----------------5--7-------------------------------|


Ab|--3-0-----------------------------------------------|


Eb|-------3**~~~---------------------------------------|


Eb|----------------------------------------------------|


Bb|----------------------------------------------------|


Gb|----5/7\5/7--5/7~-----------------------------------|


Db|----5/7\5/7--5/7~-----------------------------------|


Ab|----------------------------------------------------|


Eb|----------------------------------------------------|


Eb|----------------------------------------------------|


Bb|----------------------------------------------------|


Gb|-------3---5\7/5\7~---------------------------------|


Db|-------3---5\7/5\7~---------------------------------|


Ab|----------------------------------------------------|


Eb|---3/5----------------------------------------------|


Eb|----------------------------------------------------|


Bb|----------------------------------------------------|


Gb|--10h^12p^10/9h^10p^9/3-\5~-------------------------|


Db|----------------------------------------------------|


Ab|----------------------------------------------------|


Eb|----------------------------------------------------|


Eb|----------------------------------------------------|


Bb|----------------------------------------------------|


Gb|--17\19/17~--17\19~---------------------------------|


Db|--17\19/17~--17\19~---------------------------------|


Ab|----------------------------------------------------|


Eb|----------------------------------------------------|


Eb|----------------------------------------------------|


Bb|---------5-----5-5-----5----------------------------|


Gb|---5-----5p^7p^5-5h^7p^5--5-5h^7~~~-----------------|


Db|---5h^7---------------------------------------------|


Ab|----------------------------------------------------|


Eb|----------------------------------------------------|


Eb|----------------------------------------------------|


Bb|---------10-----------------------------------------|


Gb|---------10--12-x-12--------------------------------|


Db|--10h^12--------------12-10h^12~~---10-----10--10---|


Ab|------------------------------------10h^12----------|


Eb|----------------------------------------------------|


Eb|----------------------------------------------------|


Bb|----------------------------------------------------|


Gb|-12~--10h^12p^10------------------------------------|


Db|-----------------12--10h^12p^10-10-10h^12~----------|


Ab|----------------------------------------------------|


Eb|----------------------------------------------------|


Eb|--13h^15p^13/12h^13p^13\10-10/12~~~~----------------|


Bb|------------------------------------------------15~~|


Gb|----------------------------------------------------|


Db|----------------------------------------------------|


Ab|----------------------------------------------------|


Eb|----------------------------------------------------|


Eb|----------------------------------------------------|


Bb|----------------------------------------------------|


Gb|---7-7----------------------------------------------|


Db|----------------------------------------------------|


Ab|----------------------------------------------------|


Eb|----------------------------------------------------|


Eb|----------------------------------------------------|


Bb|----------------------------------------------------|


Gb|----------------------------------------------------|


Db|----------------------------------------------------|


Ab|--5~--0-5-3~--0-3-2~~-0-2-1-3---5~--0-5-3~--0-3-2~--|


Eb|----------------------------------------------------|


Eb|----------------------------------------------------|


Bb|----------------------------------------------------|


Gb|----------------------------------------------------|


Db|-----3-0--------------------------------------------|


Ab|-1-0-----0-3--5~--0-5-3~--0-3-2~-0-2-1-3--5~--0-5-3~|


Eb|----------------------------------------------------|


Eb|----------------------------------------------------|


Bb|----------------------------------------------------|


Gb|----------------------------------------------------|


Db|----------------------------------------------------|


Ab|-0-3-2~--0-2-1-3------------------------------------|


Eb|----------------------------------------------------|


Eb|----------------------------------------------------|


Bb|----------------------------------------------------|


Gb|----------------------------------------------------|


Db|----------------------------------------------------|


Ab|--5~--0-5-3~--0-3-2~~-0-2-1-3---5~--0-5-3~--0-3-2~--|


Eb|----------------------------------------------------|


Eb|----------------------------------------------------|


Bb|----------------------------------------------------|


Gb|----------------------------------------------------|


Db|-----3-0--------------------------------------------|


Ab|-1-0-----0-3--5~--0-5-3~--0-3-2~-0-2-1-3------------|


Eb|----------------------------------------------------|


Eb|----------------------------------------------------|


Bb|-------------------------5/7\5----------------------|


Gb|---7~~\---14\12\10\9\7~--5/7\5----------------------|


Db|--------------------------------5/7\5--5/7~---------|


Ab|--------------------------------5/7\5--5/7~---------|


Eb|----------------------------------------------------|


Eb|----------------------------------------------------|


Bb|--------------10------------------------------------|


Gb|--14\12\10\9-----12b~~~---10-12b-r12-10h^12~~-12b---|


Db|----------------------------------------------------|


Ab|----------------------------------------------------|


Eb|----------------------------------------------------|


Eb|-----------------12-12-----12-12-----12-12----12-12-|


Bb|-------------15b-------15b-------15b-------15b------|


Gb|-r12-10-9~~-----------------------------------------|


Db|----------------------------------------------------|


Ab|----------------------------------------------------|


Eb|----------------------------------------------------|


Eb|---------------13-15-15b-r15-13-15b~~~~-------------|


Bb|-15b~~~---/15---------------------------------------|


Gb|----------------------------------------------------|


Db|----------------------------------------------------|


Ab|----------------------------------------------------|


Eb|----------------------------------------------------|


Important: The song above is NOT stored on the Chordie server. The original song is hosted at www.xguitar.com. Chordie works as a search engine and provides on-the-fly formatting. Chordie does not index songs against artists/composers will. To remove this song please click here.

This song is displayed as text-only. Transposing and tuning is only available for chordpro-songs.

Login - add to songbook

Rating click stars to rate

Layout
Accuracy

SHARE PAGE  




You need to log in to post comments