Guitar Tabs, Chords and Lyrics


B.B.K.   Korn



DOWNLOADED FROM WWW.KORNWEB.COM

BBK - Guitar Tab
6 Transcriptions

-------------------------------------------------------------- 

Transcribed by : James frazzetto (frazztabz@hotmail.com)

Settings-these are the amp and effects settings for B.B.K.
AMP         |--------------------------|
gain-4      |-----|-----|----|----|----|
vol.-7  amp-|delay|chors|trem|dist|wah-|--Ibanez 7 string
hi.-7       |-----|-----|----|----|----|
mid.-2      |--------------------------|
bass-8
rev.-0

PEDALS
DELAY--------chorus------tremolo-----distortion-----wah-wah----7 string
delay-1      speed-5     speed-5       gain-10
feedback-1   depth-7     depth-7       vol.-6
blend-1

7 string tuned down 1 step

intro
w/wah o-open wah  +-closed
   o                   +
||----------------------------------
||--3-3-3-3-3-3-3-3-3-3-4-4-4-4-4-4-
||----------------------------------
||----------------------------------
||----------------------------------
||----------------------------------
||----------------------------------

rhy.fig.1

||--6--6--6--6--6--6/18-----19-------
||-----------------------------------
||--3--3--3--3--3--3/15-----16-------
||-----------------------------------
||-----------------------------------
||-----------------------------------
||------------------------------0----

fill1 w/fig.1
||-----------------
||-----------------
||-----------------
||-----------------
||-------------2---
||-------------2---
||-------------0---

verse

||-------------14---
||-----17-----------
||------------------
||------------------
||------------------
||------------------
||------------------

rhy fig. 2a-play with verse
||-------------------|-----------------
||-------------------|-----------------
||------/11-------11-|-11--------------
||------/-9--------9-|--8----7-------9-
||-------------------|------------9----
||-------------------|-----------------
||-------------------|-----------------

fill 2
||----------------
||------------5---
||----------------
||------------2---
||----------------
||----------------
||----------------

chorus
||----------------------------20-20-20-19-19-|-19------------
||-19-19-19-19-19-19-19-19-19----------------|-----18-18-18--
||----------------------------17-17-17-16-16-|-16------------
||-16-16-16-16-16-16-16-16-16----------------|-----15-15-15--
||-------------------------------------------|---------------
||-------------------------------------------|---------------
||-------------------------------------------|---------------

chorus cntd.
||-20-20-20-20-20-20-20-20-20-20--
||--------------------------------
||-17-17-17-17-17-17-17-17-17-17--
||--------------------------------
||--------------------------------
||--------------------------------
||--------------------------------

riff a              7x                        8th
||--------------------------|------------------------
||--------------------------|------------------------
||--------------------------|------------------------
||----------3--------3--3-4-|----------3--------3----
||--------------------------|------------------------
||----------1--------1--1-2-|----------1--------1----
||-0-0-0-0-----0---0--------|-0-0-0-0-----0---0---0--

3rd verse-w/whammy wah
||-------------------|---------------|------------------|
||--7-------(7)/19---|---------------|--7--------(7)/19-|
||-------------------|----rest-------|------------------|
||-------------------|---------------|------------------|
||-------------------|---------------|------------------|
||-------------------|---------------|------------------|
||-------------------|---------------|------------------|

3rd verse cont.
||-------------------|---------------|------------------|
||-----------(19)\17-|-7------(7)/19-|----------\17\16--|
||-------------------|---------------|------------------|
||-------------------|---------------|------------------|
||-------------------|---------------|------------------|
||-------------------|---------------|------------------|
||-------------------|---------------|------------------|

3rd verse cont.
||-------------------|---------------|---------|--------|
||--7---------(7)/19-|--------\12\11-|--7------|--rest--|
||-------------------|---------------|---------|--------|
||-------------------|---------------|---------|--------|
||-------------------|---------------|---------|--------|
||-------------------|---------------|---------|--------|
||-------------------|---------------|---------|--------|

riff b w/chorus
||--------0-h-2-----|--0-h-1---------|--0-h-1-----|
||---0--------------|----------------|------------|
||---------------3--|----------------|------------|
||------------------|-----------3----|------------|
||------------------|----------------|------------|
||------------------|----------------|------------|
||------------------|----------------|------------|

bridge/clean tone w/chorus
||--------|--------0------|--------0------0---|-----------|
||--rest--|------------3--|-------------------|--------*5-|
||--------|---------------|-------------------|-----------|
||--------|---------------|-------------------|-----------|
||--------|--2------------|---1---------------|---1-------|
||--------|---------------|-------------------|-----------|
||--------|---------------|-------------------|-----------|

riff 4 play with bridge w/chorus
||-------0------2--|-------0-------2--|------------
||-----------------|------------------|------------
||-----------------|------------------|------------
||-----------------|------------------|------------
||--2--------------|--1---------------|--1---------
||-----------------|------------------|------------
||-----------------|------------------|------------

interlude
||-------------------------
||-------------------------
||-------------------------
||----------3--------3-----
||-------------------------
||----------1--------1-----
||-0-0-0-0----0--0-0---0-0-

riff 5
||------------------|----------------
||------------------|----------------
||------------------|----------------
||--------4------3--|-----------5----
||--2-----4------3--|-----------5----
||--2-----2------1--|-----------3----
||--0---------------|----------------

-------------------------------------------------------------------------------------

Transcribed by Daniel Postlethwaite (danielpost_1@hotmail.com)

*Tuning* all strings down whole step (DGCFAD)
**KEY** /- slide up,   \- slide down,	  ~- trill
Intro- (w/wah wah + dist.)(Guitar 1)    Verse 1- (w/dist. only)(Both Guitars)       
D|---------------------------|          |-------------------18-18-18-18-19------|
A|---------------------------| 4x       |---------------------------------------|
F|-15-15-15-16-16-16---------| Then     |-15-15-15-15-15-15-15-15-15-15-16------|  8x
C|---------------------------|          |---------------------------------------|
G|-13-13-13-14-14-14---------|          |-13-13-13-13-13-13---------------------|
D|---------------------------|          |----------------------------------(0)--|*(Guitar 1 only plays)*

Verse 2 (let ring)(Both Guitars)  
D|----------------------------|  				        |----------------------------|  
A|-----17-19-----------17-19--|                         |-----17-19-------17-19------|
F|-16-----------15------------| 4x then Verse 1 4x then |-16----------15-------------| 5x
C|----------------------------|                         |----------------------------| (last time only Guitar 1)
G|----------------------------|				            |----------------------------|  
D|----------------------------|				            |----------------------------|

Chorus (Guitar 1)         (Guitar 2)
D|-----------------------|------------------------------------------------------|
A|-----13-12-------------|------------------------------------------------------|
F|-11-----------9--10----|----------10--------10--------------10---------10-----| 4x
C|-----10--9-------------|--9--9-9--9--9--9-9-9--9-9-9-9-9-9--9--9--9-9--9--9-9-|
G|-9------------7---8----|--9--9-9--8--9--9-9-8--9-9-9-9-9-9--8--9--9-9--8--9-9-|
D|-----------------------|--7--7-7-----7--7-7----7-7-7-7-7-7-----7--7-7-----7-7-|

Verse 3 (Guitar 1)(w/phaser)(5x)    w/dit.(Guitar 2)   ~~      ~~~~   ~~~          ~~~~
D|------------------------------|-------------------2/14---2/14\13--2/14\13\12---2/14\13\12\2-----------|  1x
A|----5-7-----5-6---------------|-----------------------------------------------------------------------|
F|-4--------3-------------------|-----------------------------------------------------------------------|Then Chorus
C|------------------------------|-----------------------------------------------------------------------| 4x, then..
G|------------------------------|-----------------------------------------------------------------------|
D|------------------------------|-----------------------------------------------------------------------|
Then Chorus 4x, then..
Interlude riff (Guitar 1)    (Guitar 2)                                (Guitar 1)  (Guitar 2)  w/echo 
D|-------------------------|-------------------------|               |------------|---------------19-------|
A|-----5--3---------5--7---|----5--7---------5--7----|	             |----5--3----|----5--7----------------|
F|-4------------3----------|-------------------------|  3x then      |--4------3--|------------------------|  then...
C|-------------------------|-------------------------|               |------------|------------------------|
G|-------------------------|-------------------------|               |------------|------------------------|
D|-------------------------|-------------------------|               |------------|------------------------|
Both guitars
D|---------------------------------------------------------------------|
A|---------------------------------------------------------------------|
F|------------10---------10--------------10-----------10---------------| 4x
C|----9--9-9--9---9--9-9-9--9-9-9-9-9-9--9--9---9-9---9---9-9----------|  then...
G|----9--9-9--8---9--9-9-8--9-9-9-9-9-9--8--9---9-9---8---9-9----------|
D|----7--7-7------7--7-7----7-7-7-7-7-7-----7---7-7-------7-7----------|

Both guitars
D|-------------------18-18-18-18-19-------|
A|----------------------------------------|
F|-15-15-15-15-15-15-15-15-15-15-16-------| 4x ...pause for 4 measures then play again 8x then..
C|----------------------------------------|
G|-13-13-13-13-13-13----------------------|
D|-----------------------------------(0)--| (one guitar)
*Speed -high depth- full (for phaser)*
Guitar 1 (w/phaser)     Guitar 2 (w/dis.)            Guitar 1 (w/dis.)       Guitar 2
   **In backround**         **Up front**                    **Both guitars w/equal volume**
D|-----------------------|---------------------|      |------------------|-------------------|
A|-----5-7-----5-6-------|---------------------|      |-----13-12--------|-------------------|
F|--4-------3------------|---------------------| 4x   |-11----------9-10-|-------------------|  4x then		
C|-----------------------|-9--9--8---10-10-----|      |-----10--9--------|-9--9--9---10-10---|
G|-----------------------|-9--9--8---10-10-----|      |-9-----------7-8--|-9--9--8---10-10---|
D|-----------------------|-7--7--6---9--9------|      |------------------|-7--7--7---9--9----|
Both guitars
D|-------------------18-18-18-18-19-------|
A|----------------------------------------|
F|-15-15-15-15-15-15-15-15-15-15-16-------| 4x
C|----------------------------------------|
G|-13-13-13-13-13-13----------------------| *don't play last(0)4th x*
D|-----------------------------------(0)--| (Guitar 1 only plays)
-------------------------------------------------------------------------------------

Transcribed by Stuart Kimbrell

6 String Tuned to (E A D G B E)

                                              
riff 1         4x    riff 2      4x scratch and do over  

E|---------------|---|-6666-111111-12---|---|
B|-------999-11- |---|-7777-121212-13---|---|
G|--7777-999-11  |---|-7777-121212-13---|-9-|
D|--7777---------|-7-|------------------|-9-|
A|---------------|-7-|----------------0-|-9-|
E|---------------|-7-|----------------0-|---|

riff 3 scratch   scratch    riff 4           8x   string 1 
|-----|---|------|---|      |------------------|  |-9/15-|  
|-----|---|------|---|      |------------------|  |------|  
|-9--9|-9-|-8--8-|-8-|  4x  |------------------|  |------|
|-9-9-|-9-|-8-8--|-8-|      |-0-33-5-3-0-3-5-3-|  |------|
|-8---|-8-|-7----|-7-|      |-0-33-5-3-0-3-5-3-|  |------|
|-----|---|------|---|      |-0-22-3-2-0-2-3-2-|  |------|

5x scratch before 9. On last time don't slide to 15.

string 2 4x          * hit strings  riff 5        8x  
|--------| |--------|  2 and 3 on  |---------------|
|--------| |--------|  the guitar  |---------------|
|--------| |--------|  head.       |---------------|
|---9--7-| |---7--*-|              |-3333-4-3-33-4-|
|--9--7--| |--9--7--|              |-3333-4-3-33-4-|
|-7--5---| |-7--5---|              |-1111-2-1-11-2-|

 riff 6      8x 
|------------|  
|------------|
|------------|
|0-4-2-3-1-1-|
|0-4-2-3-1-1-|
|0-2-0-1-1-1-|
Here is the order 
(riff 1)(riff 2)(riff 3)(riff 2)don't scratch on last two times
(riff 3)(riff 4)(string 1)(riff 4)(string 2)(riff 5)(riff 2)
(riff 2)(riff 6)(riff 2)
-------------------------------------------------------------------------------------

Transcribed By:NickPF111@aol.com

Tuning:Whole Step Down (DGCFAD)
Fig1 (Intro/Outro riff)
|-----------------------|
|-----------------------|
|-15-15-15-16-16-16-----|
|-----------------------|
|-13-13-13-14-14-14-----|
|------------------- 7--|

Fig2 (Verse riff)
|----------------------|
|----17-19-----17--19--|
|-16--------15---------|
|----------------------|
|----------------------|
|----------------------|

Fig3 (Chorus riff)
Guitar 1             Guitar 2
|-----------------|------------------------|
|-----13--12------|------------------------|
|-11---------10---|--------10-------10-----|
|-----10--9-------|-9--9-9-9--9--9--9--9---|
|-9----------8----|-9--9-9-8--9--9--8--9---|
|-----------------|-7--7-7----7--7-----7---|
Fig4 (Interlude riff)
|-----------------|
|---5-3----5-7----|
|-4------3--------|
|-----------------|
|-----------------|
|-----------------|

Lyrics:
Fig 2
Fig3 
Fig2
Fig3 
Fig4
Fig1
A   Ab   B  B (Fig2 here also)
A   Ab   B  B (Fig2 & Fig3 Guitar 1 here also)
-------------------------------------------------------------------------------------

Transcribed By: Ron Stone WillStone@webtv.net

This transcription is for a 7-string guitar tuned A,D,G,C,F,A,D

Intro: With wah-wah(pedal open for the 3 and pedal closed for the 4 (
use tremolo picking)

D-------------------------------
A-------------------------------
F-3333333333444444--------------
C-------------------------------
G-------------------------------
D-------------------------------
A-------------------------------

Fig 1:

D-6666\18----19------- (use tremolo picking on the
A--------------------- first four notes)
F-3333\15----17-------
C---------------------
G---------------------
D---------------------
A------------------0--

1st verse: With Whammy/Wah pedal
(the two notes a and e and open high a and open low e)(i'm not sure
which string to play them on)l 

D----------------14-----------------------14--
A-------17-----------------------17-----------
F---------------------------------------------
C---------------------------------------------
G--(a)----------------------------------------
D--------------------------(e)----------------
A---------------------------------------------

Chorus:

low D-----------1----------1----------------
low A----0000---0----00---00----------------

2nd Verse (with Whammy/Wah)In all the slides in this verse only the
first note in the slide is struck. 

High A----7-----7/19---------7------7/19

High A-----19/7---------------7------7/19

High A-----19/17/16----------7------7/19

High A-----19/12/11----7

Fig. 2 ( With clean/chorus sound) 
:let notes ring: :harmonic:
D---------0----------------------0------------------
A---------------3--------------------0--------------
F------------------------------------------------5--
C---------------------------------------------------
G--2-----------------------1---------------1--------
D---------------------------------------------------
A---------------------------------------------------
Chorus Riff B:
C-----------------4-------3-------------5-----
G---------2------2-------1-------------3------
Low D---2------2-------1-------------3--------
Low A---0-------------------------------------

Intro: play 4x
Fig. 1: play 8x
1st. verse: 6x
Fig.1: 4x
1st verse: 7x
Chorus: 7x
2nd verse: 1x
Chorus: 7x
Fig. 2: 7x
chorus: 7x
Fig 1: 4x
guitar ad-lib for 8 seconds
Fig.1: 8x
Chorus riff B: 8x
Fig 1: 4x
-------------------------------------------------------------------------------------

Transcribed By: Ryan rybert@msn.com

7-string guitars tuned down one whole step

(w/wah-wah)
-|---------------------------------||-
-|---------------------------------||-
-|-3-3-3-3-3-3-3-3-3-3-4-4-4-4-4-4-||-
-|---------------------------------||-
-|-1-1-1-1-1-1-1-1-1-1-2-2-2-2-2-2-||-
-|---------------------------------||-
-|---------------------------------||-

-|-6-6-6-6-6-6-/18----19-------||-          
-|-----------------------------||-   
-|-3-3-3-3-3-3-/15----16-------||-     
-|-----------------------------||-      
-|-----------------------------||-      
-|-----------------------------||-        
-|------------------------0----||-

These two riffs played together in verse...
-|------14--|------14--||-
-|--17------|--17------||-
-|----------|----------||-
-|----------|----------||-
-|----------|----------||-
-|----------|----------||-
-|----------|----------||-

-|-----------|------------||-                   
-|-----------|------------||-                   
-|-/11----11-|-11---------||-                    
-|-/9-----9--|-8---7----9-||-                     
-|-----------|--------9---||-                    
-|-----------|------------||-                     
-|-----------|------------||-

Next two riffs played together in chorus...
-|----------------------||--------------------||-
-|----------------------||--------------------||-
-|----------------------||--------------------||-
-|----------------------||--------------------||-
-|----------------------||--------------------||-
-|---------1------1-1-2-||---------1------1---||-
-|-0-0-0-0---0--0-------||-0-0-0-0---0--0---0-||-

-|----------------------20-20-20-19-19-|-19------------------- 
-|-19-19-19-19-19-19-19----------------|----18-18-18---------- 
-|----------------------17-17-17-16-16-|-16----------17-17-17- 
-|-16-16-16-16-16-16-16----------------|----15-15-15----------  
-|-------------------------------------|-------------15-15-15- 
-|-------------------------------------|----------------------  
-|-------------------------------------|---------------------- 

-|----------------------||-19----------20-20-20-20-20-20-20-20-
-|----------------------||----18-18-18-------------------------
-|-17-17-17-17-17-17-17-||-16----------17-17-17-17-17-17-17-17-
-|----------------------||----15-15-15------------------------- 
-|-15-15-15-15-15-15-15-||-------------------------------------
-|----------------------||-------------------------------------
-|----------------------||-------------------------------------

-|-20-20-||-
-|-------||-
-|-17-17-||-
-|-------||-
-|-------||- 
-|-------||-
-|-------||-

-|-----------||- Whammy pedal part...here arranged for standard guitar.
-|-7--(7)/19-||-
-|-----------||-
-|-----------||-
-|-----------||-
-|-----------||-   
-|-----------||-  

-|----0h2----|-0h1-----||-0h1----||-                       
-|-0---------|---------||--------||-                        
-|---------3-|------3--||--------||-                        
-|-----------|---------||--------||-                        
-|-----------|---------||--------||-                         
-|-----------|---------||--------||-                         
-|-----------|---------||--------||-

-|----0----|----0-0--||-                           
-|------3--|---------||-
-|---------|---------||-                         
-|---------|---------||-
-|-2-------|-1-------||-                         
-|---------|---------||-
-|---------|---------||-                       
 |         |         ||
-|----0-2--|----0-2--||-
-|---------|---------||-                      
-|---------|---------||-
-|---------|---------||-                      
-|-2-------|-1-------||-
-|---------|---------||-                        
-|---------|---------||-

-|----------|---------||-                          
-|----------|---------||-
-|----------|---------||-                         
-|----4--3--|----5----||-
-|-2--4--3--|----5----||-        
-|-2--2--1--|----3----||-
-|-0--------|---------||-

People who like the song enough to want to play it should be able
to put the riffs together correctly, so I won't waste time typing 
the order and shit...It's pretty self-explanatory, anyway.

E-mail me, Ryan, at rybert@msn.com.


Important: The song above is NOT stored on the Chordie server. The original song is hosted at www.xguitar.com. Chordie works as a search engine and provides on-the-fly formatting. Chordie does not index songs against artists'/composers' will. To remove this song please click here.

This song is displayed as text-only. Transposing and tuning is only available for chordpro-songs.

Login - add to songbook

Rating click stars to rate

Layout
Accuracy

Jango Player

SHARE PAGE  




You need to log in to post comments