Guitar Tabs, Chords and Lyrics


Y'All Want a Single   Korn



Band:KoRn
Song: Y’all Want A Single?
Album: Take A Look In The Mirror
Tabber: alytee123

Intro one
A|-------|
F|-------|
C|-------|
G|-------|               X8
D|-------|
A|--1-0--|

Intro 2/chorus
This is also played in the chorus.
A|---------------------|
F|---------------------|
C|---------------------|
G|---------------------|         x8
D|---------------------|
A|--1-0-3-3-3-2-0-1-|

Verse
This is played in the verse too.
A|--------------------|
F|--------------------|
C|--------------------|
G|--------------------|           x4
D|--------------------|
A|--1-0-0-0-0-0-1--|

 This is played later in the song after the chorus.
A|----------------------|
F|----------------------|
C|----------------------|
G|----------------------|   x1
D|----------3-3-2-3-5-|
A|--0-1-3--------------|

verse
A|-----------------|
F|-----------------|
C|-----------------|
G|-----------------|         x4
D|-----------------|
A|--0-0-0-0-0-1--|

A|--------------------------|
F|---------------------------|
C|---------------------------|
G|---------------------------|       x1
D|-0-0-0-0-0-2-------------|
A|-------------3-3-3-3-3-5-|

This again, 
A|-----------------|
F|-----------------|
C|-----------------|
G|-----------------|         x2
D|-----------------|
A|--0-0-0-0-0-1--|


A|--------------------------|
F|---------------------------|
C|---------------------------|
G|---------------------------|       x1
D|-0-0-0-0-0-2-------------|
A|-------------3-3-3-3-3-5-|

chorus
A|---------------------|
F|---------------------|
C|---------------------|
G|---------------------|         x8
D|---------------------|
A|--1-0-3-3-3-2-0-1-|

bridge
A|----------------------|
F|----------------------|
C|----------------------|
G|----------------------|   x1
D|----------3-3-2-3-5-|
A|--0-1-3--------------|


Verse2
A|-----------------|
F|-----------------|
C|-----------------|
G|-----------------|         x4
D|-----------------|
A|--0-0-0-0-0-1--|

A|--------------------------|
F|---------------------------|
C|---------------------------|
G|---------------------------|       x1
D|-0-0-0-0-0-2-------------|
A|-------------3-3-3-3-3-5-|

This again, 
A|-----------------|
F|-----------------|
C|-----------------|
G|-----------------|         x2
D|-----------------|
A|--0-0-0-0-0-1--|


A|--------------------------|
F|---------------------------|
C|---------------------------|
G|---------------------------|       x1
D|-0-0-0-0-0-2-------------|
A|-------------3-3-3-3-3-5-|


chorus
A|---------------------|
F|---------------------|
C|---------------------|
G|---------------------|         x8
D|---------------------|
A|--1-0-3-3-3-2-0-1-|

bridge
A|----------------------|
F|----------------------|
C|----------------------|
G|----------------------|   x4
D|----------3-3-2-3-5-|
A|--0-1-3--------------|

Quite hard to hear this bit. Its where jons holding that long ass note and then after. Might not be correct this bit. Also has some weird tremolo stuff in. 
A|-------|
F|-------|
C|-------|
G|-------|               X8
D|-------|
A|--1-0--|


chorus
A|---------------------|
F|---------------------|
C|---------------------|
G|---------------------|         played a lot of times here. 
D|---------------------|
A|--1-0-3-3-3-2-0-1-|




Important: The song above is NOT stored on the Chordie server. The original song is hosted at www.xguitar.com. Chordie works as a search engine and provides on-the-fly formatting. Chordie does not index songs against artists'/composers' will. To remove this song please click here.

This song is displayed as text-only. Transposing and tuning is only available for chordpro-songs.

Login - add to songbook

Rating click stars to rate

Layout
Accuracy

SHARE PAGE  




You need to log in to post comments