Guitar Tabs, Chords and Lyrics


What I've Become    Lamb Of God



Band- Lamb Of God
Song- What Ive Become

E||----------------------||----------------------------|
B||----------------------||----------------------------|
G||----------------------||*---------------------------|
D||----------------------||*---------------------------|
A||--3----2----6----5----||----------------------------|
D||--3----2----6----5----||---0--0--0--0--0-0-0--0--0--|



----------------------------|-----------------------------|
----------------------------|-----------------------------|
----------------------------|-----------------------------|
----------------------------|-----------------------------|
----------------------------|-----------------------------|
--0--0-0-0--0--0-0-0--0--0--|--0--0-0-0--0--0-0-0--0-0-0--|


                       3x
-----------------------||----------------------||---------------------------|
-----------------------||----------------------||---------------------------|
----------------------*||----------------------||*--------------------------|
----------------------*||----------------------||*--------------------------|
--3----2----6----5-----||--3----2----6----5----||---------------------------|
--3----2----6----5-----||--3----2----6----5----||---3--5--3--5--3--5--3--5--|



--------------------------|--------------------------|
--------------------------|--------------------------|
--------------------------|--------------------------|
--------------------------|--------------------------|
--------------------------|--------------------------|
--6--5--4--3--0--2--3--5--|--3--5--3--5--3--5--3--5--|



--------------------------|--------------------------|
--------------------------|--------------------------|
--------------------------|--------------------------|
--------------------------|--------------------------|
--------------------------|--------------------------|
--6--5--4--3--0--2--3--5--|--3--5--3--5--3--5--3--5--|



--------------------------|--------------------------|
--------------------------|--------------------------|
--------------------------|--------------------------|
--------------------------|--------------------------|
--------------------------|--------------------------|
--6--5--4--3--0--2--3--5--|--3--5--3--5--3--5--3--5--|



---------------------------||----------------------------|
---------------------------||----------------------------|
--------------------------*||*---------------------------|
--------------------------*||*---------------------------|
--5--4--------4--3---------||----------------------------|
--------7--6--------6--5---||---0--0--0--0--0-0-0--0--0--|



----------------------------|-----------------------------|
----------------------------|-----------------------------|
----------------------------|-----------------------------|
----------------------------|-----------------------------|
----------------------------|-----------------------------|
--0--0-0-0--0--0-0-0--0--0--|--0--0-0-0--0--0-0-0--0-0-0--|


                       3x
-----------------------||---------------------------|--------------------------|
-----------------------||---------------------------|--------------------------|
----------------------*||*--------------------------|--------------------------|
----------------------*||*--------------------------|--------------------------|
--3----2----6----5-----||---------------------------|--------------------------|
--3----2----6----5-----||---3--5--3--5--3--5--3--5--|--6--5--4--3--0--2--3--5--|



--------------------------|--------------------------|
--------------------------|--------------------------|
--------------------------|--------------------------|
--------------------------|--------------------------|
--------------------------|--------------------------|
--3--5--3--5--3--5--3--5--|--6--5--4--3--0--2--3--5--|



--------------------------|--------------------------|
--------------------------|--------------------------|
--------------------------|--------------------------|
--------------------------|--------------------------|
--------------------------|--------------------------|
--3--5--3--5--3--5--3--5--|--6--5--4--3--0--2--3--5--|



--------------------------|---------------------------||------------------|
--------------------------|---------------------------||------------------|
--------------------------|--------------------------*||------------------|
--------------------------|--------------------------*||------------------|
--------------------------|--5--4--------4--3---------||------------------|
--3--5--3--5--3--5--3--5--|--------7--6--------6--5---||------------------|



------------------|---------------------|-------------------|
------------------|---------------------|-------------------|
------------------|---------------------|-------------------|
------------------|---------------------|-------------------|
------------------|--0----------0----0--|--0----------------|
------------------|--0----------0----0--|--0----------------|



|-----------------------------|----------------------------|
|-----------------------------|----------------------------|
|*----------------------------|----------------------------|
|*----------------------------|----------------------------|
|-----------------------------|----------------------------|
|---0-0-0--0--0--0-0-0--0--0--|--0-0-0--0--0--0-0-0--0--0--|



----------------------------|----------------------------|
----------------------------|----------------------------|
----------------------------|----------------------------|
----------------------------|----------------------------|
----------------------------|----------------------------|
--0-0-0--0--0--0-0-0--0--0--|--0-0-0--0--0--0-0-0--0--0--|



----------------------------|----------------------------|
----------------------------|----------------------------|
----------------------------|----------------------------|
----------------------------|----------------------------|
----------------------------|----------------------------|
--0-0-0--6--6--0-0-0--6--6--|--0-0-0--6--6--0-0-0--6--6--|


                                                          2x
----------------------------|-----------------------------||
----------------------------|-----------------------------||
----------------------------|----------------------------*||
----------------------------|----------------------------*||
----------------------------|-----------------------------||
--0-0-0--6--6--0-0-0--6--6--|--0-0-0--6--6--0-0-0--6--6---||



--------------------------------|--------------------------------|
--------------------------------|--------------------------------|
--------------------------------|--------------------------------|
--------------------------------|--------------------------------|
--------------------------------|--------------------------------|
--0-0-0--12--12--0-0-0--12--12--|--0-0-0--12--12--0-0-0--12--12--|



--------------------------------|--------------------------------|
--------------------------------|--------------------------------|
--------------------------------|--------------------------------|
--------------------------------|--------------------------------|
--------------------------------|--------------------------------|
--0-0-0--12--12--0-0-0--12--12--|--0-0-0--12--12--0-0-0--12--12--|



--------------------------------|--------------------------------|
--------------------------------|--------------------------------|
--------------------------------|--------------------------------|
--------------------------------|--------------------------------|
--------------------------------|--------------------------------|
--0-0-0--12--12--0-0-0--12--12--|--0-0-0--12--12--0-0-0--12--12--|



----------------------------|--------------------------|
----------------------------|--------------------------|
----------------------------|--------------------------|
----------------------------|--------------------------|
----------------------------|--------------3-----3--6--|
--0-0-0--12--12--0----6--5--|--3--4--5--6-----6--------|



|---------------------------|---------------------------|
|---------------------------|---------------------------|
|*--------------------------|---------------------------|
|*--------------------------|---------------------------|
|---5-----------------------|---------------------------|
|------0--0--0--0--0--0--0--|--0-0-0--0--0--0--0--0--0--|


                                                       3x
---------------------------|---------------------------||
---------------------------|---------------------------||
---------------------------|--------------------------*||
---------------------------|--------------------------*||
---------------------------|--------------3-----3--6---||
--0-0-0--0--0--0--0--6--5--|--3--4--5--6-----6---------||



-----------------------|------------------------|----------------------|
-----------------------|------------------------|----------------------|
*----------------------|------------------------|----------------------|
*----------------------|------------------------|----------------------|
-------0--1--0--0------|--0--0--1--1------0--1--|------0--1--0--0------|
-------0--1--0--0------|--0--0--1--1------0--1--|------0--1--0--0------|



---------------------------||---------------------------|
---------------------------||---------------------------|
--------------------------*||*--------------------------|
--------------2-----------*||*--7--6--------------6--6--|
--0--1--0--0--0--1--0--1---||---5--5--0--1--0--0--5--5--|
--0--1--0--0-----1--0--1---||---------0--1--0--0--------|



--------------------------|--------------------------|
--------------------------|--------------------------|
--------------------------|--------------------------|
--------------6--7--------|--5--5--------------3--3--|
--0--0--1--1--5--5--0--1--|--3--3--0--1--0--0--1--1--|
--0--0--1--1--------0--1--|--------0--1--0--0--------|



---------------------------||---------------------------|
---------------------------||---------------------------|
--------------------------*||*--------------------------|
--------------2-----------*||*--7--6--------------6--6--|
--0--1--0--0--0--1--0--1---||---5--5--0--1--0--0--5--5--|
--0--1--0--0-----1--0--1---||---------0--1--0--0--------|



--------------------------|--------------------------|
--------------------------|--------------------------|
--------------------------|--------------------------|
--------------6--7--------|--5--5--------------3--3--|
--0--0--1--1--5--5--0--1--|--3--3--0--1--0--0--1--1--|
--0--0--1--1--------0--1--|--------0--1--0--0--------|


                           2x
---------------------------||--------------------------|
---------------------------||--------------------------|
--------------------------*||--------------------------|
--------------2-----------*||--7--6--------------6--6--|
--0--1--0--0--0--1--0--1---||--5--5--0--1--0--0--5--5--|
--0--1--0--0-----1--0--1---||--------0--1--0--0--------|



--------------------------|--------------------------|-----------------------|
--------------------------|--------------------------|-----------------------|
--------------------------|--------------------------|-----------------------|
--------------6--7--------|--5--5--------------3--3--|--------------2--------|
--0--0--1--1--5--5--0--1--|--3--3--0--1--0--0--1--1--|--0--1--0--0--0--------|
--0--0--1--1--------0--1--|--------0--1--0--0--------|--0--1--0--0-----------|



|---------------------------|--------------------------|
|---------------------------|--------------------------|
|*--------------------------|--------------------------|
|*--7--6--------------6--6--|--------------6--7--------|
|---5--5--0--1--0--0--5--5--|--0--0--1--1--5--5--0--1--|
|---------0--1--0--0--------|--0--0--1--1--------0--1--|


                                                      3x
--------------------------|---------------------------||--------------------|
--------------------------|---------------------------||--------------------|
--------------------------|--------------------------*||--------------------|
--5--5--------------3--3--|--------------2-----------*||--------------------|
--3--3--0--1--0--0--1--1--|--0--1--0--0--0--1--0--1---||--0--0--------------|
--------0--1--0--0--------|--0--1--0--0-----1--0--1---||--0--0--------------|





Guitar2




E||----------------------||----------------------------|
B||----------------------||----------------------------|
G||----------------------||*---------------------------|
D||----------------------||*---------------------------|
A||--3----2----6----5----||----------------------------|
D||--3----2----6----5----||---0--0--0--0--0-0-0--0--0--|



----------------------------|-----------------------------|
----------------------------|-----------------------------|
----------------------------|-----------------------------|
----------------------------|-----------------------------|
----------------------------|-----------------------------|
--0--0-0-0--0--0-0-0--0--0--|--0--0-0-0--0--0-0-0--0-0-0--|


                       3x
-----------------------||----------------------||---------------------------|
-----------------------||----------------------||---------------------------|
----------------------*||----------------------||*--------------------------|
----------------------*||----------------------||*--------------------------|
--3----2----6----5-----||--3----2----6----5----||---------------------------|
--3----2----6----5-----||--3----2----6----5----||---3--5--3--5--3--5--3--5--|



--------------------------|--------------------------|
--------------------------|--------------------------|
--------------------------|--------------------------|
--------------------------|--------------------------|
--------------------------|--------------------------|
--6--5--4--3--0--2--3--5--|--3--5--3--5--3--5--3--5--|




--------------------------|--------------------------|
--------------------------|--------------------------|
--------------------------|--------------------------|
--------------------------|--------------------------|
--------------------------|--------------------------|
--6--5--4--3--0--2--3--5--|--3--5--3--5--3--5--3--5--|



--------------------------|--------------------------|
--------------------------|--------------------------|
--------------------------|--------------------------|
--------------------------|--------------------------|
--------------------------|--------------------------|
--6--5--4--3--0--2--3--5--|--3--5--3--5--3--5--3--5--|



---------------------------||----------------------------|
---------------------------||----------------------------|
--------------------------*||*---------------------------|
--------------------------*||*---------------------------|
--5--4--------4--3---------||----------------------------|
--------7--6--------6--5---||---0--0--0--0--0-0-0--0--0--|



----------------------------|-----------------------------|
----------------------------|-----------------------------|
----------------------------|-----------------------------|
----------------------------|-----------------------------|
----------------------------|-----------------------------|
--0--0-0-0--0--0-0-0--0--0--|--0--0-0-0--0--0-0-0--0-0-0--|


                       3x
-----------------------||---------------------------|--------------------------|
-----------------------||---------------------------|--------------------------|
----------------------*||*--------------------------|--------------------------|
----------------------*||*--------------------------|--------------------------|
--3----2----6----5-----||---------------------------|--------------------------|
--3----2----6----5-----||---3--5--3--5--3--5--3--5--|--6--5--4--3--0--2--3--5--|



--------------------------|--------------------------|
--------------------------|--------------------------|
--------------------------|--------------------------|
--------------------------|--------------------------|
--------------------------|--------------------------|
--3--5--3--5--3--5--3--5--|--6--5--4--3--0--2--3--5--|



--------------------------|--------------------------|
--------------------------|--------------------------|
--------------------------|--------------------------|
--------------------------|--------------------------|
--------------------------|--------------------------|
--3--5--3--5--3--5--3--5--|--6--5--4--3--0--2--3--5--|



--------------------------|---------------------------||
--------------------------|---------------------------||
--------------------------|--------------------------*||
--------------------------|--------------------------*||
--------------------------|--5--4--------4--3---------||
--3--5--3--5--3--5--3--5--|--------7--6--------6--5---||



--------------------------------|--------------------------------|
--------------------------------|--------------------------------|
--------------------------------|--------------------------------|
--------------------------------|--------------------------------|
--------------------------------|--------------------------------|
--0-0-0--12--12--0-0-0--12--12--|--0-0-0--12--12--0-0-0--12--12--|



--------------------------------|--------------------------------|
--------------------------------|--------------------------------|
--------------------------------|--------------------------------|
--------------------------------|--------------------------------|
--------------------------------|--------------------------------|
--0-0-0--12--12--0-0-0--12--12--|--0-0-0--12--12--0-0-0--12--12--|



|-----------------------------|----------------------------|
|-----------------------------|----------------------------|
|*----------------------------|----------------------------|
|*----------------------------|----------------------------|
|-----------------------------|----------------------------|
|---0-0-0--0--0--0-0-0--0--0--|--0-0-0--0--0--0-0-0--0--0--|



----------------------------|----------------------------|
----------------------------|----------------------------|
----------------------------|----------------------------|
----------------------------|----------------------------|
----------------------------|----------------------------|
--0-0-0--0--0--0-0-0--0--0--|--0-0-0--0--0--0-0-0--0--0--|



----------------------------|----------------------------|
----------------------------|----------------------------|
----------------------------|----------------------------|
----------------------------|----------------------------|
----------------------------|----------------------------|
--0-0-0--6--6--0-0-0--6--6--|--0-0-0--6--6--0-0-0--6--6--|


                                                          2x
----------------------------|-----------------------------||
----------------------------|-----------------------------||
----------------------------|----------------------------*||
----------------------------|----------------------------*||
----------------------------|-----------------------------||
--0-0-0--6--6--0-0-0--6--6--|--0-0-0--6--6--0-0-0--6--6---||



--------------------------------|--------------------------------|
--------------------------------|--------------------------------|
--------------------------------|--------------------------------|
--------------------------------|--------------------------------|
--------------------------------|--------------------------------|
--0-0-0--12--12--0-0-0--12--12--|--0-0-0--12--12--0-0-0--12--12--|



--------------------------------|--------------------------------|
--------------------------------|--------------------------------|
--------------------------------|--------------------------------|
--------------------------------|--------------------------------|
--------------------------------|--------------------------------|
--0-0-0--12--12--0-0-0--12--12--|--0-0-0--12--12--0-0-0--12--12--|



--------------------------------|--------------------------------|
--------------------------------|--------------------------------|
--------------------------------|--------------------------------|
--------------------------------|--------------------------------|
--------------------------------|--------------------------------|
--0-0-0--12--12--0-0-0--12--12--|--0-0-0--12--12--0-0-0--12--12--|



----------------------------|--------------------------|
----------------------------|--------------------------|
----------------------------|--------------------------|
----------------------------|--------------------------|
----------------------------|--------------3-----3--6--|
--0-0-0--12--12--0----6--5--|--3--4--5--6-----6--------|



|---------------------------|---------------------------|
|---------------------------|---------------------------|
|*--------------------------|---------------------------|
|*--------------------------|---------------------------|
|---5-----------------------|---------------------------|
|------0--0--0--0--0--0--0--|--0-0-0--0--0--0--0--0--0--|


                                                       3x
---------------------------|---------------------------||
---------------------------|---------------------------||
---------------------------|--------------------------*||
---------------------------|--------------------------*||
---------------------------|--------------3-----3--6---||
--0-0-0--0--0--0--0--6--5--|--3--4--5--6-----6---------||



-----------------------|------------------------|----------------------|
-----------------------|------------------------|----------------------|
*----------------------|------------------------|----------------------|
*----------------------|------------------------|----------------------|
-------0--1--0--0------|--0--0--1--1------0--1--|------0--1--0--0------|
-------0--1--0--0------|--0--0--1--1------0--1--|------0--1--0--0------|



---------------------------||-----------------------|------------------------|
---------------------------||-----------------------|------------------------|
--------------------------*||*----------------------|------------------------|
--------------2-----------*||*----------------------|------------------------|
--0--1--0--0--0--1--0--1---||-------0--1--0--0------|--0--0--1--1------0--1--|
--0--1--0--0-----1--0--1---||-------0--1--0--0------|--0--0--1--1------0--1--|



----------------------|---------------------------||---------------------------|
----------------------|---------------------------||---------------------------|
----------------------|--------------------------*||*--------------------------|
----------------------|--------------2-----------*||*--7--6--------------6--6--|
------0--1--0--0------|--0--1--0--0--0--1--0--1---||---5--5--0--1--0--0--5--5--|
------0--1--0--0------|--0--1--0--0-----1--0--1---||---------0--1--0--0--------|



--------------------------|--------------------------|
--------------------------|--------------------------|
--------------------------|--------------------------|
--------------6--7--------|--5--5--------------3--3--|
--0--0--1--1--5--5--0--1--|--3--3--0--1--0--0--1--1--|
--0--0--1--1--------0--1--|--------0--1--0--0--------|


                           2x
---------------------------||--------------------------|
---------------------------||--------------------------|
--------------------------*||--------------------------|
--------------2-----------*||--7--6--------------6--6--|
--0--1--0--0--0--1--0--1---||--5--5--0--1--0--0--5--5--|
--0--1--0--0-----1--0--1---||--------0--1--0--0--------|



--------------------------|--------------------------|-----------------------|
--------------------------|--------------------------|-----------------------|
--------------------------|--------------------------|-----------------------|
--------------6--7--------|--5--5--------------3--3--|--------------2--------|
--0--0--1--1--5--5--0--1--|--3--3--0--1--0--0--1--1--|--0--1--0--0--0--------|
--0--0--1--1--------0--1--|--------0--1--0--0--------|--0--1--0--0-----------|



|---------------------------|--------------------------|
|---------------------------|--------------------------|
|*--------------------------|--------------------------|
|*--7--6--------------6--6--|--------------6--7--------|
|---5--5--0--1--0--0--5--5--|--0--0--1--1--5--5--0--1--|
|---------0--1--0--0--------|--0--0--1--1--------0--1--|


                                                      3x
--------------------------|---------------------------||--------------------|
--------------------------|---------------------------||--------------------|
--------------------------|--------------------------*||--------------------|
--5--5--------------3--3--|--------------2-----------*||--------------------|
--3--3--0--1--0--0--1--1--|--0--1--0--0--0--1--0--1---||--0--0--------------|


Important: The song above is NOT stored on the Chordie server. The original song is hosted at www.xguitar.com. Chordie works as a search engine and provides on-the-fly formatting. Chordie does not index songs against artists'/composers' will. To remove this song please click here.

This song is displayed as text-only. Transposing and tuning is only available for chordpro-songs.

Login - add to songbook

Rating click stars to rate

Layout
Accuracy

SHARE PAGE  




You need to log in to post comments