Guitar Tabs, Chords and Lyrics


Black Label    Lamb Of God



Lamb Of God - Black Label
Tabbed By: Jim thinx nick is gay
EMail: thorianite@aol.com


these are my corrections i was doja36213@aol.com
X-Palm mute
Tuning:Drop D

Intro:
||-------------------------------------------------------------------||
||-------------------------------------------------------------------||
||-------------------------------------------------------------------||
||-------------------------------------------------------------------||
||-------------------------------------------------------------------||
||-0-0-0-1p0-0-3p0-4p0-3p0--0-1p0--(repeat)--------------------------||
   X X X
chorus:
||-------------------------------------------------------------------||
||-------------------------------------------------------------------||
||-------------------------------------------------------------------||
||-------------------------------------------------------------------||
||-0-0-0-1p0-0-3p0-4p0-3p0--0-1p0--(repeat)--------------------------||
||-0-0-0-1p0-0-3p0-4p0-3p0--0-1p0--(repeat)--------------------------||

Bridge 1:
||-------------------------------------------------------------------||
||-------------------------------------------------------------------||
||-------------------------------------------------------------------||
||------------------------11/12-11--------9/10-9---------------------||
||-0--1-3-4(3x's)---0-0-0--9/10--9--0-00--7/8--7---------------------||
||-0--1-3-4(3x's)---0-0-0-----------0-00-----------------------------||
                    X X X           X XX
Bridge 2:
||-------------------------------------------------------------------||
||-------------------------------------------------------------------||
||-------------------------------------------------------------------||
||--------11/12-11--------9/10-9-------------------------------------||
||--0-0-0--9/10--9--0-00--7/8--7-------------------------------------||
||--0-0-0-----------0-00---------------------------------------------||
    X X X           X XX
Breakdown 1:
||-------------------------------------------------------------------||
||-------------------------------------------------------------------||
||-------------------------------------------------------------------||
||-------------------------------------------------------------------||
||-------------------------------------------------------------------||
||-000-000-000-000-000-000-000-000-000-000-000-000-000-000-000-000---||

breakdown 2:
||-------------------------------------------------------------------||
||-------------------------------------------------------------------||
||-------------------------------------------------------------------||
||-------------------------------------------------------------------||
||-------------------------------------------------------------------||
||-0-0-0-0000-0-0-0-0000-0-0-0-0000-0-0-0-0000-0-0-0-0000-0-0-0-0000-||

Bridge 3:
||-------------------------------------------------------------------||
||-------------------------------------------------------------------||
||-------------------------------------------------------------------||
||------------------------11/12-11--------9/10-9---------------------||
||-0--1-3-4(3x's)---0-0-0--9/10--9--0-00--7/8--7---------------------||
||-0--1-3-4(3x's)---0-0-0-----------0-00-----------------------------||
                    X X X           X XX
chorus:
||-------------------------------------------------------------------||
||-------------------------------------------------------------------||
||-------------------------------------------------------------------||
||-------------------------------------------------------------------||
||-0-0-0-1p0-0-3p0-4p0-3p0--0-1p0--(repeat)--------------------------||
||-0-0-0-1p0-0-3p0-4p0-3p0--0-1p0--(repeat)--------------------------||

Bridge 4:
||-------------------------------------------------------------------||
||-------------------------------------------------------------------||
||-------------------------------------------------------------------||
||--------11/12-11--------9/10-9---------0(let ring)-----------------||
||--0-0-0--9/10--9--0-00--7/8--7---------0(let ring)-----------------||
||--0-0-0-----------0-00-----------------0(let ring)-----------------||
    X X X           X XX
Outro:

||-------------------------------------------------------------------||
||-------------------------------------------------------------------||
||-------------------------------------------------------------------||
||---------9-9-9---6-6----7-7----------------------------------------||
||---------7-7-7---6-6----5-5----------------------------------------||
||--0-0-0--------0-6-6--0--------------------------------------------||
    X X X        X      X

Listen to the song for the number of time you do everything



Important: The song above is NOT stored on the Chordie server. The original song is hosted at www.xguitar.com. Chordie works as a search engine and provides on-the-fly formatting. Chordie does not index songs against artists'/composers' will. To remove this song please click here.

This song is displayed as text-only. Transposing and tuning is only available for chordpro-songs.

Login - add to songbook

Rating click stars to rate

Layout
Accuracy

SHARE PAGE  




You need to log in to post comments