Guitar Tabs, Chords and Lyrics


O.D.H.G.A.B.F.E.    Lamb Of God



Lamb of God - O.D.H.G.A.B.F.E.
Tabbed By: steelworker
Email: pasb3369@yahoo.com

Tuning: Drop D (D A D G B E)

alright i saw no tabs for this sick ass song so i decided to tab it out here it is
(this is also my first tab so if you could rate this that would be sick)

Repeat 7 times

E|------------------------------------------------||
B|------------------------------------------------||
G|------------------------------------------------||
D|------------------------------------------------||
A|-----5-6~~~----------0-3-0----------------------||
D|-0--0-0-------0-3-5-6-----6-5-3-----------------||


E|------------------------------------------------||
B|------------------------------------------------||
G|------------------------------------------------||
D|------------------------------------------------||
A|-----5-3~-6-5-5555-5--3333-3--11-0--------------||
D|-0--0-0---6-5-5555-5--3333-3--11-0--------------||

then repeat intro 3 more times

then this riff once more
E|------------------------------------------------||
B|------------------------------------------------||
G|------------------------------------------------||
D|------------------------------------------------||
A|-----5-3~-6-5-5555-5--3333-3--11-0--------------||
D|-0--0-0---6-5-5555-5--3333-3--11-0--------------||

then repeat the intro 3 more times

then this riff repeated 5 times
E|------------------------------------------------||
B|------------------------------------------------||
G|------------------------------------------------||
D|------------------------------------------------||
A|-----5-3~-6-5-5555-5-3333-3--11-0---------------||
D|-0--0-0---6-5-5555-5-3333-3--11-0---------------||



repeat this about 4 times
E|------------------------------------------------||
B|------------------------------------------------||
G|------------------------------------------------||
D|------------------------------------------------||
A|-0-0-0-0--00000000-0----------------------------||
D|-0x0x0x0--00000000-0----------------------------||

then after that it goes into this
E|------------------------------------------------||
B|------------------------------------------------||
G|------------------------------------------------||
D|------------------------------------------------||
A|---------------0-0------------------------------||
D|-1/8~~--1/7~~--0-0------------------------------||

repeat this 4 times...............then
E|--------------------------------||-------------------------------
B|--------------------------------||-------------------------------
G|--------------------------------||-------------------------------
D|--------------------------------||-------------------------------
A|-0-0-0-0-00000000-0-------------||--------------0-0--------------


Important: The song above is NOT stored on the Chordie server. The original song is hosted at www.xguitar.com. Chordie works as a search engine and provides on-the-fly formatting. Chordie does not index songs against artists/composers will. To remove this song please click here.

This song is displayed as text-only. Transposing and tuning is only available for chordpro-songs.

Login - add to songbook

Rating click stars to rate

Layout
Accuracy

SHARE PAGE  




You need to log in to post comments