Chordie logo

D'yer Mak'er   Led Zeppelin



D'YER MAK'ER Guitar Tab
E|----------------|----------------|----------------|
B|----------------|----------------|----------------|
G|----------------|----------------|----------------|
D|----------------|----------------|----------------|
A|----------------|----------------|----------------|
E|----------------|----------------|----------------|

E|--------1012----|--------7-8-----|--------3-5-----|--------5-7-----|
B|----8-8-8-----5-|----5---------0-|----------------|------3---------|
G|----9-9-------5-|--5---5---------|2-2---2-3-5---4-|--4-4-4-5-7---7-|
D|----------------|7---------------|--------------5-|--------------5-|
A|----------------|----------------|----------------|----------------|
E|8---------------|----------------|----------------|3---------------| 5X

E|5---------------|----------------|----------------|----------------|
B|5---------------|----------------|------5---------|----------------|
G|5---------------|----------------|------5---5-----|----------------|
D|7---------------|----------------|----5-------5---|5---------------|
A|----------------|----------------|5-7-7---------7-|7------557----5-|
E|----------------|----------------|----------------|----------------|

E|--------1012----|--------7-8-----|--------3-5-----|--------5-7-----|
B|----8-8-8-----5-|----5---------0-|----------------|------3---------|
G|----9-9-------5-|--5---5---------|2-2---2-3-5---4-|--4-4-4-5-7---7-|
D|----------------|7---------------|--------------5-|--------------5-|
A|----------------|----------------|----------------|----------------|
E|8---------------|----------------|----------------|3---------------| 5X

E|5---------------|----------------|
B|5---------------|----------------|
G|5---------------|----------------|
D|7---------------|----------------|
A|----------------|----------------|
E|----------------|----------------|

E|----------------|----------------|----------------|----------------|
B|1-1---1-1-------|1-1---1-1---1---|--------3-------|3-3---3-3-3-3---|
G|2-2---2-2-------|2-2---2-2-2-0---|--4---4-4-------|4-4---4-4-4-4---|
D|2-2---2-2-------|2-2---2-2-2---2-|--5---5-5-------|5-5---5-5-5-5-5-|
A|----------------|----------------|--5---5---------|----------------|
E|----------------|----------------|3-3---3---------|----------------| 3X
            When I read the letter you wrote me....

E|1---------------|----------------|----------------|----------------|
B|--1-----1-----1-|----1-----1-1---|3-3-3---3-3---3-|----3---3-3---3-|
G|----2-----2-----|2-----2-----2---|4-4-4-----4---4-|--0-----0-0---0-|
D|3-----3-----3---|3-3-----3-----3-|5-----5-----5-5-|3-----2-----0---|
A|----------------|----------------|----------------|----------------|
E|----------------|----------------|----------------|----------------|
                I  love you               ooh        baby I love you

E|--------1012----|--------7-8-----|--------3-5-----|--------5-7-----|
B|----8-8-8-----5-|----5---------0-|----------------|------3---------|
G|----9-9-------5-|--5---5---------|2-2---2-3-5---4-|--4-4-4-5-7---7-|
D|----------------|7---------------|--------------5-|--------------5-|
A|----------------|----------------|----------------|----------------|
E|8---------------|----------------|----------------|3---------------| 5X

E|5---------------|----------------|----------------|----------------|
B|5---------------|----------------|------5---------|----------------|
G|5---------------|----------------|------5---5-----|----------------|
D|7---------------|----------------|----5-------5---|5---------------|
A|----------------|----------------|5-7-7---------7-|7------557----5-|
E|----------------|----------------|----------------|----------------|

E|--------1012----|--------7-8-----|--------3-5-----|--------5-7-----|
B|----8-8-8-----5-|----5---------0-|----------------|------3---------|
G|----9-9-------5-|--5---5---------|2-2---2-3-5---4-|--4-4-4-5-7---7-|
D|----------------|7---------------|--------------5-|--------------5-|
A|----------------|----------------|----------------|----------------|
E|8---------------|----------------|----------------|3---------------| 5X

E|5---------------|----------------|
B|5---------------|----------------|
G|5---------------|----------------|
D|7---------------|----------------|
A|----------------|----------------|
E|----------------|----------------|

E|----------------|----------------|----------------|----------------|
B|1-1---1-1-------|1-1---1-1---1---|--------3-------|3-3---3-3-3-3---|
G|2-2---2-2-------|2-2---2-2-2-0---|--4---4-4-------|4-4---4-4-4-4---|
D|2-2---2-2-------|2-2---2-2-2---2-|--5---5-5-------|5-5---5-5-5-5-5-|
A|----------------|----------------|--5---5---------|----------------|
E|----------------|----------------|3-3---3---------|----------------| 3X
            When I read the letter you wrote me....

E|1---------------|----------------|----------------|----------------|
B|--1-----1-----1-|----1-----1-1---|3-3-3---3-3---3-|----3---3-3---3-|
G|----2-----2-----|2-----2-----2---|4-4-4-----4---4-|--0-----0-0---0-|
D|3-----3-----3---|3-3-----3-----3-|5-----5-----5-5-|3-----2-----0---|
A|----------------|----------------|----------------|----------------|
E|----------------|----------------|----------------|----------------|
                I  love you               ooh        baby I love you

  (Guitar Solo)
E|----------------|----------------|----------------|--------------10|
B|----------------|8---6---5-------|----------------|12--12--108-----|
G|----9-7-----5---|----------7-----|------------9---|----------------|
D|----------------|------------7---|----------------|----------------|
A|3---------------|----------------|----------------|----------------|
E|----------------|----------------|----------------|----------------|

E|12------10--8---|12--10--8-------|----------------|----------------|
B|----------------|------------10--|------------10--|--8-------------|
G|----------------|----------------|----------------|----9---9-7-5---|
D|----------------|----------------|----------------|--------------7-|
A|----------------|----------------|----------------|----------------|
E|----------------|----------------|----------------|----------------|


E|----------------|----------------|----------------|--------------10|
B|----------------|----------------|----------------|12--12--108-----|
G|5-----------9---|----7---5---5-5-|------------9---|----------------|
D|----------------|----------7-----|-------7--------|----------------|
A|----------------|----------------|----------------|----------------|
E|----------------|----------------|----------------|----------------|

E|--12------------|----------------|----------------|----------------|
B|----------------|--------------0-|----------------|----------------|
G|----------------|----------------|----------------|----------------|
D|----------------|----------------|----------------|----------------|
A|----------------|----------------|----------------|----------------|
E|----------------|----------------|----------------|----------------|

E|--------1012----|--------7-8-----|--------3-5-----|--------5-7-----|
B|----8-8-8-----5-|----5---------0-|----------------|------3---------|
G|----9-9-------5-|--5---5---------|2-2---2-3-5---4-|--4-4-4-5-7---7-|
D|----------------|7---------------|--------------5-|--------------5-|
A|----------------|----------------|----------------|----------------|
E|8---------------|----------------|----------------|3---------------| 4X

E|--------1012----|--------7-8-----|--------3-5-----|--------5-7-----|
B|----8-8-8-----5-|----5---------0-|----------------|------3---------|
G|----9-9-------5-|--5---5---------|2-2---2-3-5---4-|--4-4-4-5-7---7-|
D|----------------|7---------------|--------------5-|--------------5-|
A|----------------|----------------|----------------|----------------|
E|8---------------|----------------|----------------|3---------------|

E|5---------------|----------------|----------------|----------------|
B|5---------------|----------------|------5---------|----------------|
G|5---------------|----------------|------5---5-----|----------------|
D|7---------------|----------------|----5-------5---|5---------------|
A|----------------|----------------|5-7-7---------7-|7------557----5-|
E|----------------|----------------|----------------|----------------|

E|--------1012----|--------7-8-----|--------3-5-----|--------5-7-----|
B|----8-8-8-----5-|----5---------0-|----------------|------3---------|
G|----9-9-------5-|--5---5---------|2-2---2-3-5---4-|--4-4-4-5-7---7-|
D|----------------|7---------------|--------------5-|--------------5-|
A|----------------|----------------|----------------|----------------|
E|8---------------|----------------|----------------|3---------------| 2X



Important: The song above is NOT stored on the Chordie server. The original song is hosted at www.xguitar.com. Chordie works as a search engine and provides on-the-fly formatting. Chordie does not index songs against artists/composers will. To remove this song please click here.

This song is displayed as text-only. Transposing and tuning is only available for chordpro-songs.

Login - add to songbook

Rating click stars to rate

Layout
Accuracy

SHARE PAGE  



You need to log in to post comments