Chordie logo

Down By The Seaside  Led Zeppelin

----------------------------------PLEASE NOTE------------------------------





---------------------------------------------------------------------------











E|-5--4/5--3-|-(3)--3--5--5/7--5-|-(5)----4/5--3--1--|--1h2p1---0-|


B|-----------|-------------------|-------------------|------------|


G|-5--4/5--4-|-(4)--4--5--5/7--5-|-(5)----4/5--4--2--|--2h3p2---0-|


D|-----------|-------------------|-------------------|------------|


A|-----------|-------------------|-------------------|------------|


E|-----------|-------------------|-------------------|------------|



E|--5---4/5--3--|-(3)-----3--5--5/7--5--|-(5)----4/5--3--1--|


B|--------------|-----------------------|-------------------|


G|--5---4/5--4--|-(4)-----4--5--5/7--5--|-(5)----4/5--4--2--|


D|--------------|-----------------------|-------------------|


A|--------------|-----------------------|-------------------|


E|--------------|-----------------------|-------------------|




E|--1h3p1--0----------|   (Easy guitar fills in the verse part)


B|--------------------|


G|--2h3p2--0----------|


D|--------------------|


A|--------------------|


E|--------------------|


[F]Seaside,    [C]    See the boats go
[F]sailing,    [C]    Can the people [F]hear, what the little fish are
saying
(Begin rhythm figure 2)
E|------13-----13-----13--|--(13)-----13-----13-----13-----13--------|
B|------13-----13-----13--|--(13)-----13-----13-----13-----13--------|
G|---12b14--12b14--12b14--|--(14)--12b14--12b14--12b14--12b14--12b14-|
D|------------------------|------------------------------------------|
A|------------------------|------------------------------------------|
E|------------------------|------------------------------------------|
E|----------12--12----12----12--12-|---12----12--12----11------10----|
B|---------------------------------|---------------------------------|
G|-(14)r12----12----12--12----12---|-12--12----12----11--11--10--10--|
D|---------------------------------|---------------------------------|
A|---------------------------------|---------------------------------|
E|---------------------------------|---------------------------------|
E|------17----17--17----17------16---|---17------16------17----17---|
B|-----------------------------------|------------------------------|
G|-10/17--17----17----17--17--16--16-|-17--17--16--16--17--17----17-|
D|-----------------------------------|------------------------------|
A|-----------------------------------|------------------------------|
E|-----------------------------------|------------------------------|
E|---12----12--12----12----12--12-|---12----12--12---11------10----|
B|--------------------------------|--------------------------------|
G|-12--12----12----12--12----12---|-12--12----12----11--11--10--10-|
D|--------------------------------|--------------------------------|
A|--------------------------------|--------------------------------|
E|--------------------------------|--------------------------------|
E|---17----17--17----17------16----|----17----17--17----17----17--|
B|---------------------------------|------------------------------|
G|-17--17----17----17--17--16--16--|--17--17----17----17--17------|
D|---------------------------------|------------------------------|
A|---------------------------------|------------------------------|
E|---------------------------------|------------------------------|

Peo- ple turn a- way Peo- ple turn a-
E|-----13-----13-----13-------|-----|-----13-----13-----13-------|
B|-----13-----13-----13-------|-----|-----13-----13-----13-------|
G|--12b14--12b14--12b14---12--|-12--|--12b14--12b14--12b14-------|
D|------------------------10--|-10--|----------------------------|
A|----------------------------|-----|----------------------------|
E|----------------------------|-----|----------------------------|

(End rhythm figure 2)
[C]way.  Down in the [F]city streets, [C]   see all the folks go
[F]racing.  [C]    No time le[F]ft, [C]      passing the time of
(Repeat rhythm figure 2)
day.
(At the end of the second time rhythm figure 2 is played, it goes
into guitar solo that pretty much stays in the key of A)
[A]Do you [A]still do the twist do you find you remember things that [D]well
I wanna tell you some go [A]twisting everyday, though sometimes it's
D (Repeat rhythm figure 1)
awful hard to tell.
[C]    Out in the [F]country, [C]   hear the people [F]singing
[C]    Singing about the [F]growing, [C]     knowing where they're
(Repeat rhythm figure 2)
going
[C]    Sing aloud for the [F]sunshine, [C]    pray hard for the [F]rain
[C]    And show your love for [F]lady nature
[C]    And she will come back a-
(Repeat rhythm figure 2)
gain
[--]Updated: July 9, 1999

Important: The song above is NOT stored on the Chordie server. The original song is hosted at www.xguitar.com. Chordie works as a search engine and provides on-the-fly formatting. Chordie does not index songs against artists/composers will. To remove this song please click here.

A C D F
variations - click chord images

Login - add to songbook

Transpose chords

Tuning

Rating click stars to rate

Layout
Accuracy

SHARE PAGE  

You need to log in to post comments