Chordie logo


Night Flight   Led Zeppelin



Transcription by: Brian Green(The.Boss@SuperGuitarist.zzn.com)

NIGHT FLIGHT
Led Zeppelin
(Page, Plant)

"Physical Graffiti"
Intro
    |-------------------------|
    |-------------------------|
    |--7----------------------|
    |--7----------------7-----|
    |--5----------------7-----|
    |-------------------5-----|
     I received a message from my brother across the water
I received a message from my brother across the water
He sat laughin' as he wrote the end's in sight

     Main Riff
     1st.
    |-------------------------|
    |-------------------------|
    |--7--7p6-7p6----7p6-7p6--|
    |--7-7--------7-7---------|
    |--5----------7-----------|
    |-------------5-----------|

So I said goodbye to all my friends
And packed my hopes inside a matchbox
'Cause I know it's time to fly

           -CHORUS-
|--0------------0-0-0-0-0--|--1-1-1-1-1-1-1-1\8--8--8--8--8--8--8--8---|
|----0-0-2h4----2-2-2-4-2--|--3-3-5-5-3-3-5-5\10-10-12-12-10-10-12-12--|
|----2-2------2h4----------|-------------------------------------------|
|--------------------------|-------------------------------------------|
|--------------------------|-------------------------------------------|
|--------------------------|-------------------------------------------|

|--2-2-2-2-2-2-2-2\10-10-10-10-10-10-10-10--|--3-3-3-3-3-3-3-3----|
|--4-4-6-6-4-4-6-6\12-12-14-14-12-12-14-14--|--5-5-7-7-5-5-7-7----|
|-------------------------------------------|---------------------|
|-------------------------------------------|---------------------|
|-------------------------------------------|---------------------|
|-------------------------------------------|---------------------|
     Come on, meet me in the morning, Meet me in the middle of the night

    |------------------------------------------------------|
    |------------------------------------------------------|
    |------------------------------------------------------|
    |--4-4-6-6-4-4-6-6-/6-6-8-8-6-6-8-8--------------------|
    |--2-2-2-2-2-2-2-2-/4-4-4-4-4-4-4-4-6-6-8-8-6-6-8-8----|
    |-----------------------------------4-4-4-4-4-4-4-4----|
    The morning light is comin', don't it make you wanna go and feel 
alright

    |--5-----------|
    |--------------|
    |----7p6-7p6---|
    |---7-------7--|
    |--------------|
    |--------------|

         Main Riff
     1st.                      2nd.
    |------------------------|
    |------------------------|
    |--7------------7p6-7p6--|
    |--7---------7-7---------|
    |--5---------7-----------|
    |------------5-----------|

I just jumped a train that never stops,
So know somehow they'll know I never finished payin' for my ride
Just n' someone pushed a gun into my hand
Tell me I'm the type of man to fight the fight that I'll require
         -CHORUS-

    |----------------------------------------------------|
    |----------------------------------------------------|
    |--------------------------2-2-4-4-2-2-4-4-/4-4-6-6--|
    |---8-8-----2h4----------2-0-0-0-0-0-0-0-0-/2-2-2-2--|
    |---6-6--2h4----2-3--3-3-0---------------------------|
    |--8--------------1--1-1-----------------------------|
     Come on, meet me in the morning, Meet me in the middle of the night

    |------------------------------------------------------|
    |------------------------------------------------------|
    |------------------------------------------------------|
    |--4-4-6-6-4-4-6-6-/6-6-8-8-6-6-8-8--------------------|
    |--2-2-2-2-2-2-2-2-/4-4-4-4-4-4-4-4-6-6-8-8-6-6-8-8----|
    |-----------------------------------4-4-4-4-4-4-4-4----|

    |---------------------|
    |---------------------|
    |---------------------|
    |---------------------|
    |--6-6-8-6-6-6-8-6-6--|
    |--4-4-4-4-4-4-4-4-4--|
Oh, mama, well I think it's time I'm leavin'
Nothin' here to make me stay
Whoa, mama, well it must be time I'm goin'
    |-------------------|
    |-------------------|
    |-------------------|
    |--6-6-8-6-6-6-8-6--|
    |--4-4-4-4-4-4-4-4--|
    |-------------------|

They're knockin' down them doors
They're tryin' to take me away

    |---------------------|
    |---------------------|
    |---------------------|
    |---------------------|
    |--6-6-8-6-6-6-8-6-6--|
    |--4-4-4-4-4-4-4-4-4--|

Please Mr. Brakeman, won't you ring your bell. And ring loud and clear
Please Mr. Fireman, won't you ring your bell
Tell the people they got to fly away from here

    |--5-----------|
    |--------------|
    |----7p6-7p6---|
    |---7-------7--|
    |--------------|
    |--------------|

         Main Riff
     1st.                      2nd.
    |------------------------|
    |------------------------|
    |--7------------7p6-7p6--|
    |--7---------7-7---------|
    |--5---------7-----------|
    |------------5-----------|
I once saw a picture of a lady with a baby
Suddenly they have a very, very special smile
We are in the middle of a change in destination
When the train stops, all together we will smile

    |---------------------|
    |---------------------|
    |---------------------|
    |---------------------|
    |--6-6-8-6-6-6-8-6-6--|
    |--4-4-4-4-4-4-4-4-4--|

Oh, meet me in the morning. Won't you meet me in the middle of the night, 
night, night
    |-------------------|
    |-------------------|
    |-------------------|
    |--6-6-8-6-6-6-8-6--|
    |--4-4-4-4-4-4-4-4--|
    |-------------------|
Everybody know the mornin' time is comin'
Don't it make you wanna feel alright. Ah, ah, yeah

    |---------------------|
    |---------------------|
    |---------------------|
    |---------------------|
    |--6-6-8-6-6-6-8-6-6--|
    |--4-4-4-4-4-4-4-4-4--|
Make me feel alright. Fly now, baby
Get to fly, yeah. Fly now, baby

--


Important: The song above is NOT stored on the Chordie server. The original song is hosted at www.xguitar.com. Chordie works as a search engine and provides on-the-fly formatting. Chordie does not index songs against artists/composers will. To remove this song please click here.

This song is displayed as text-only. Transposing and tuning is only available for chordpro-songs.

Login - add to songbook

Rating click stars to rate

Layout
Accuracy

SHARE PAGE  




You need to log in to post comments