Chordie logo

Woke Up This Morning   Nickelback



BITCHIN' TABS

          URL: www.angelfire.com/goth/btab/
	EMAIL: btabmaster@hotmail.com

        THIS IS AN EXCLUSIVE TAB TO "BITCHIN' TABS"

 ----------------------------------------------------------------------------------------------

	     SONG: Woke Up This Morning
	     BAND: Nickelback
	    ALBUM: Silver Side Up
   TRANSCRIBED BY: Chris Frazier (btabmaster@hotmail.com)
	     DATE: 09-22-2K1

 ----------------------------------------------------------------------------------------------

	TUNING: Down 1/2 step (Eb Ab Db Gb Bb Eb)

     Riff 1a:
    Eb|----------------------------------------------------------------------------------|
    Bb|----------------------------------------------------------------------------------|
    Gb|-----6---6------6---6--4-4------6---6------6---6--2-2------6---6-------6---6--9-9-|
    Db|-----------------------4-4------------------------2-2-------------------------9-9-|
    Ab|-4-4---4----4-4---4----2-2--4-4---4----4-4---4----0-0---4-4---4----4-4---4----7-7-|
    Eb|----------------------------------------------------------------------------------|

     Riff 1b:
    Eb|---------------------|
    Bb|---------------------|
    Gb|-----6---6--4-4------|
    Db|------------4-4--2-2-|
    Ab|-4-4---4----2-2--2-2-|
    Eb|-----------------0-0-|

     Riff 2a:
    Eb|--------------------------------------------------------------------------------|
    Bb|--------------------------------------------------------------------------------|
    Gb|-----6---6------6---6----------6---6------6---6-----------6---6-------6---6--9/-| /=slide
    Db|-----------------------9/------------------------7/--------------------------9/-|   down
    Ab|-4-4---4----4-4---4----9/--4-4---4----4-4---4----7/---4-4---4----4-4---4-----7/-|
    Eb|-----------------------7/------------------------5/-----------------------------|

     Riff 2b:
    Eb|---------------------|
    Bb|---------------------|
    Gb|-----6---6--4-4------|
    Db|------------4-4--2-2-|
    Ab|-4-4---4----2-2--2-2-|
    Eb|-----------------0-0-|

     Riff 3:
    Eb|----------------------------------------------------------|------|------------|
    Bb|----------------------------------------------------------|------|------------|
    Gb|-----6---6------6---6--4-4------6---6------6---6--4-4-6-6-|-REST-|-6-6--------|
    Db|------------------------------------------------------6-6-|-REST-|-6-6--------|
    Ab|-4-4---4----4-4---4---------4-4---4----4-4---4--------4-4-|------|-4-4--------|
    Eb|----------------------------------------------------------|------|--------12/-|

     Riff 4:
    Eb|---------------------|
    Bb|---------------------|
    Gb|-----6---6--4h6--6h8-|
    Db|---------------------|
    Ab|-4-4---4-------------|
    Eb|---------------------|

     Riff 5:
    Eb|-------------------------------------------------------------------|
    Bb|-------------------------------------------------------------------|
    Gb|-----6---6---6--------8---8---8----6-6-6-6-6-6-6-6-6-6-6-6-6-6-6-6-| PM=palm mute
    Db|---6---6---6---6----8---8---8---8--6-6-6-6-6-6-6-6-6-6-6-6-6-6-6-6-|
    Ab|-4----------------6----------------4-4-4-4-4-4-4-4-4-4-4-4-4-4-4-4-|
    Eb|-------------------------------------------------------------------|
     PM                                   - - - - - - - - - - - - - - - -

     Riff 6:
    Eb|--------------------------------|
    Bb|---------6--6-6-----------------|
    Gb|-6--6-6--6--6-6--6--6-6--1--1-1-|
    Db|-6--6-6--6--6-6--7--7-7--2--2-2-|
    Ab|-4--4-4--4--4-4--7--7-7--2--2-2-|

    Eb|-----------------5--5-5--0--0-0-|

     Riff 7:
    Eb|----------------------------------------------------------|
    Bb|----------------------------------------------------------|
    Gb|-6--6-6--6--6-6--6--6-6--9--9-9--6--6-6--9--9---6---------|
    Db|-6--6-6--6--6-6--7--7-7--9--9-9--7--7-7--9--9---6-----9/--|
    Ab|-4--4-4--4--4-4--7--7-7--7--7-7--7--7-7--7--7---4-----9/--|
    Eb|-----------------5--5-5----------5--5-5---------------7/--|

     Riff 8: (w/ auto-wah)
    Eb|-------------|-------|-------|
    Bb|-------------|-------|-------|
    Gb|-6-----------|-------|-------|
    Db|-6-----------|-------|-------|
    Ab|-4----4h6-7/-|-7-4---|-------|


Important: The song above is NOT stored on the Chordie server. The original song is hosted at www.xguitar.com. Chordie works as a search engine and provides on-the-fly formatting. Chordie does not index songs against artists/composers will. To remove this song please click here.

This song is displayed as text-only. Transposing and tuning is only available for chordpro-songs.

Login - add to songbook

Rating click stars to rate

Layout
Accuracy

SHARE PAGE  



You need to log in to post comments