Guitar Tabs, Chords and Lyrics


Hairspray Queen   Nirvana



NIRVANA - INCESTICIDE

Tabbed by Kieren Hudson.
if anyone has comments, or suggestions mail me at kieren@mail.org

TABULATURE DEFINITION
)     =  bend
/     =  slide up
\     =  slide down
~~    =  vibrato
x/x   =  pickscrape
*     =  uncontrolled feedback

Hairspray Queen
Tune Down 1/2 a step
 intro
e-----------5--x--x-----5--5---------x--x--5--5--5--5--x--x-----------5------
b-----------5--x--x-----5--5---------x--x--5--5--5--5--x--x-----------5------
g--2--------5--x--x--x--5--5---------x--x--5--5--5--5--x--x--5--5--5--5------
d--1--2-----4--x--x--x--4--4---------x--x--4--4--4--4--------4--4--4--4------
a--0--2--4-----------------4---4--4--------4-----4--4--------4--4--4--4------
e-----0--2---------------------2--2--------------2--2--------2--2--2--2------

e--------x--x--5--x--5--x-----5--5-----------5-----5--x--x-------------------
b--------x--x--5--x--5--x-----5--5-----------5-----5--x--x-------------------
g--------x--x--5--x--5--x-----5--5-----------------5--x--x--5--5-------------
d--------x--x--4--x--4--x-----4--4-----------------4--x--x--4--4-------------
a--4--4--------------------4--4--4--------------4--4--------4--4-------------
e--2--2--------------------2--2--2--x--x--2-----2--2--------2--2-------------

e--5--5--5--------------5--5-------------------------------------------------
b--5--5--5--------------5--5-------------------------------------------------
g--5--5--5--------x--5--5--5--5--5--5----------------------------------------
d--4--4--4-----------4--4--4--4--4--4--4--4--4--4----------------------------
a--------------------4--4--4--4--4--4--4--4--4--4----------------------------
e-----------2--x-----2--2--2--2--2--2--2--2--2--2----------------------------

e--/5---)--6--)--7----8-------9--------10/12--7--8--8\7--7\5--5/7------------
b--/5--5-----6-----7----8--8-----8--9--10/12--7--8--8\7--7\4--4/7------------
g---------------------------------------------7--------------------0---------
d----------------------------------------------------------------------------
a----------------------------------------------------------------------------
e----------------------------------------------------------------------------

e--4--)-5--)-6---7-----8----9/12\8--8~~--8\7--7\5--5/-7-/8-------------------
b----4----5----6---7/8---9--9/12\8--8~~--8\7--7\5--5/-7-/8--0----------------
g---------------------------------------------x----x-----x-------------------
d---------------------------------------------0----0-----0-------------------
a----------------------------------------------------------------------------
e----------------------------------------------------------------------------

e----------------------------------------------------------------------------
b-----------------0----------------------------------------------------------
g-----------------0--------0-------------------------------------------------
d--------9-----7--0----------------------------------------------------------
a-----7-----7-----------0-----5---)--)--)---)--------------------------------
e--7-----------------4-----------3--5--5--(5)--------------------------------

  1st solo
e--/5---)--6--)-7---8-----9----------10/13\9--8--8\7-----5/7-----------------
b--/5--5-----6----7---8/9----10--10--10/13\9--8--8\7-----5/7-----------------
g-----------------------------9---9------------------------------------------
d-----------------------------------------------------0----------------------
a----------------------------------------------------------------------------
e----------------------------------------------------------------------------

e--7-----5--)-6--)-7---9------9----10/13\8--8~~--8\7--7\--5/7----------------
b--7-------5----6----7---9--9---10----13\8--8~~--8\7--7\---------------------
g-----0------------------------------------------8\7-------------------------
d----------------------------------------------------------------------------
a----------------------------------------------------------------------------
e----------------------------------------------------------------------------

e--7-------------------------------------------------------------------------
b--5-------------------------------------------------------------------------
g-----0----------------------------------------------------------------------
d-----0---)-----------------------)--------------------------5--5--4---------
a--------2---2--2\0--0--2--2-----2--2--(2)--2\0--0--2--2-----3--3--2---------
e-----------------------------0---------------------------0------------------

e----------------------------------------------------------------------------
b----------------------------------------------------------------------------
g----------------------------------------------------------------------------
d--4--2--2--4--4-----4/5--5\--4--4-----2--4--4--4----------------------------
a--2--0--0--2--2-----2/3--3\--2--2--0--0--2--2--2----------------------------
e-----------------0----------------------------------------------------------

 chorus
e----------------------------------------------------------------------------
b----------------------------------------------------------------------------
g----------------------------------------------------------------------------
d--3------3------3------3------3------3-----3--x--x--x--x--------------------
a--3------3------3------3------3------3-----3--x--x--x--x--------------------
e--1------1------1------1------1------1-----1--x--x--x--x--------------------

 2nd solo                 )
e---)---------2----x--x--8---)-------2---------------------------------------
b--4--(4)-(4)---0--x--x--8--8-----------3\-----------------------------------
g-----------------------------------------------)----------------------------
d------------------------------4--4---------x--1-----------------------------
a-------------------------------------------------5-----/10--0--0------------
e----------------------------------------------------4-------0--0------------

e---------------------------------------------------------------------)------
b-----------------x--5--5--5--5--4--3-------------------------------15-------
g-----------------x--5--5--5--5--4--1-----2---------------------14-----------
d--------8--7-----------5--5--------------2-----4--5\4--3-------11-----------
a--5--9--------0-----------------------------2--4--5\4-----------------------
e--------------------------------------2-------------------5/13--------------

e---------------------11-----------------------------------------------------
b------------------0--11--11-11-11-11----------------------------------------
g---------7--------0-------9--9--9--9----------------------------------------
d---------7--7-----0---------------------------------------------------------
a--12-12--------7--0---------------------------------------------------------
e----------------------------------------------------------------------------

 3rd solo        )  )               )
e--23----------12-12-(12)-(12)-10/12-----------------------------------------
b-------)------12--------------10----x--5--5--3--2---------------------------
g-----10-----7----------------------------------------1-------2---0--x-7--7--
d---------9----------------------------------------x--0--2--0---2----x-6--6--
a----------------------------------------------------------------------------
e----------------------------------------------------------------------------

e--7-7-7--7--7--7------------------------------------------------------------
b--7-7-7--7--7--7------------------------------5-----------------------------
g--7-7-7--7--7--7------------------------------5--5/--11-11-11\5--5--5--5----
d--6-6-6--6--6--6----------------4--3----------4--4/--11-11-11\4--4--4--4----
a-----------------------------5--------0--3/4--------------------------------
e------------------0--0--3/4-------------------------------------------------

  4th solo                    )                
e------------10-11--11-11--11-14\11--14\11--14\11--14------------------------
b---)------------------11------------------------------9--12\----------------
g--8--8--(8)---------------------------------------------------5--6--6--6----
d----------------------------------------------------------------------------
a----------------------------------------------------------------------------
e----------------------------------------------------------------------------
                                                    )   )
e---------------------------------------------12--12--12-(12)----------------
b--7------------------------------------------12--12--12-(12)--0--6----------
g-----4-11-6--4--6--4--6--4--6--4\-----------------------------0--6----------
d----------------------------------------------------------------------------
a-----------------------------------7/11--10---------------------------------
e----------------------------------------------------------------------------

e-------------------------------------------)--------------------------------
b--5--4-------------------------------10--10~~~~-----0--0--------------------
g--5--4--4-----------------------)----10--10~~~~--8--0--0--------------------
d-----------1---------4--6\-----3--------------------0--0--------------------
a-----------------/7---------------5-----------------0--0--------------------
e--------------3-------------4-----------------------------------------------

 outro
e----------------------------------------------------------------------------
b---------------------------------------4--2---------------------------------
g---------------------------------------4--2---------------------------------
d---------------------------------------4--2---------------------------------
a----------------------------------------------------------------------------
e--7/6--0--6/5--0--5/4--0--4/3--0--3/2--------6/5--0--5/4--0--4/3--0--3/2--0-

e----------------------------------------------------------------------------
b------3--1------------------------------------------------------------------
g------3--1------------------------------------------------------------------
d------3--1------------------------------------------------------------------
a----------------------------------------------------------------------------
e--2/1------6/5--0--5/4--0--4/3--0--3/2--0--1--1--1--1--5/4--0--4/3--0--3/2--
e----------------------------------------------------------------------------
b----------------------------------------------------------------------------
g----------------------------------------------------------------------------
d-----------------------------------3----------------------------------------
a-----2--2--2--2--4--4--4--4--------3----------------------------------------
e--0--------------------------1--1--1----------------------------------------


Important: The song above is NOT stored on the Chordie server. The original song is hosted at www.xguitar.com. Chordie works as a search engine and provides on-the-fly formatting. Chordie does not index songs against artists'/composers' will. To remove this song please click here.

This song is displayed as text-only. Transposing and tuning is only available for chordpro-songs.

Login - add to songbook

Rating click stars to rate

Layout
Accuracy

SHARE PAGE  




You need to log in to post comments