Guitar Tabs, Chords and Lyrics


Linolem   Nofx




Date: Fri, October 24 1997

Group: NOFX
Album: Punk In Drublic
Released: 1994 epitaph records
Track: 1
Title: linoleum

x - scratch
pm - palm mute
intro - repeat a few times

|---------------------------------------|
|---------------------------------------|
|-9-x-x-9-x-x-9-9-9--9-x-x-9-x-x-9-9-9--|
|-9-x-x-9-x-x-9-9-9--9-x-x-9-x-x-9-9-9--|
|-7-x-x-7-x-x-7-7-7--7-x-x-7-x-x-7-7-7--|
|---------------------------------------|

then guitar 2 comes in with
 
|---------------------------|
|---------------------------|
|---------------------------|
|-2-2-2-2-2-2-2-2-2-2-2-2-2-|
|-2-2-2-2-2-2-2-2-2-2-2-2-2-|
|-0-0-0-0-0-0-0-0-0-0-0-0-0-|
 
|----------------------------------------------------------------------
|----------------------------------------------------------------------
|-13-13-13-13-13-13-13-5-5-5-5-5-5-5-5-9-9-9-9-9-9-9-9-9-9-9-9-9-9-9-9-
|--x--x--x--x--x--x--x-x-x-x-x-x-x-x-x-x-x-x-x-x-x-x-x-x-x-x-x-x-x-x-x-
|-11-11-11-11-11-11-11-3-3-3-3-3-3-3-3-7-7-7-7-7-7-7-7-7-7-7-7-7-7-7-7-
|----------------------------------------------------------------------

 -----------------------------------|
 -9-9-9-9-9-9-9-9-8-8-8-8-8-8-8-8-9-|
 -x-x-x-x-x-x-x-x-x-x-x-x-x-x-x-x-x-|
 -7-7-7-7-7-7-7-7-6-6-6-6-6-6-6-6-7-|
 -----------------------------------|
 -----------------------------------|

verse

|---------------------------------------------------------------
|---------------------------------------------------------------
|-9-9-9-9-9-9-9-9-9-9-9-9-4-4-4-4-4-4-4-4-4-4-4-4-6-6-6-6-6-6-6-
|-9-9-9-9-9-9-9-9-9-9-9-9-4-4-4-4-4-4-4-4-4-4-4-4-6-6-6-6-6-6-6-
|-7-7-7-7-7-7-7-7-7-7-7-7-2-2-2-2-2-2-2-2-2-2-2-2-4-4-4-4-4-4-4-
|---------------------------------------------------------------

 -------------------------------------|
 -------------------------------------|
 -4-4-4-4-4-4-2-2-2-2-2-2-4-4-4-4-4-4-|
 -4-4-4-4-4-4-2-2-2-2-2-2-4-4-4-4-4-4-|
 -2-2-2-2-2-2-0-0-0-0-0-0-2-2-2-2-2-2-|
 -------------------------------------|

bridge

   pm_______________|   |_______________|   |_______________|
|------------------------------------------------------------
|------------------------------------------------------------
|---------------------4--4-4-4-4-4-4-4-4--6--6-6-6-6-6-6-6-6-
|-2--2-2-2-2-2-2-2-2--4--4-4-4-4-4-4-4-4--6--6-6-6-6-6-6-6-6-
|-2--2-2-2-2-2-2-2-2--2--2-2-2-2-2-2-2-2--4--4-4-4-4-4-4-4-4-
|-0--0-0-0-0-0-0-0-0-----------------------------------------

 ---------------------------------|
 ---------------------------------|
 -2-2-2-2-2-2-2-2-2-2-2-2-2-2-2-2-|
 -2-2-2-2-2-2-2-2-2-2-2-2-2-2-2-2-|
 -0-0-0-0-0-0-0-0-0-0-0-0-0-0-0-0-|
 ---------------------------------|

|-----------------------------------------------------------------
|-----------------------------------------------------------------
|---------------------------------4-4-4-4-4-4-4-4-4-4-4-4-4-4-4-4-
|-2-2-2-2-2-2-2-2-2-2-2-2-2-2-2-2-4-4-4-4-4-4-4-4-4-4-4-4-4-4-4-4-
|-2-2-2-2-2-2-2-2-2-2-2-2-2-2-2-2-2-2-2-2-2-2-2-2-2-2-2-2-2-2-2-2-
|-0-0-0-0-0-0-0-0-0-0-0-0-0-0-0-0---------------------------------

 -----------------------------------------------------------------|
 -----------------------------------------------------------------|
 -6-6-6-6-6-6-6-6-6-6-6-6-6-6-6-6-2-2-2-2-2-2-2-2-2-2-2-2-2-2-2-2-|
 -6-6-6-6-6-6-6-6-6-6-6-6-6-6-6-6-2-2-2-2-2-2-2-2-2-2-2-2-2-2-2-2-|
 -4-4-4-4-4-4-4-4-4-4-4-4-4-4-4-4-0-0-0-0-0-0-0-0-0-0-0-0-0-0-0-0-|
 -----------------------------------------------------------------|

outro

|----------|
|----------|
|-9--9--9--|
|-9--9--9--|
|-7--7--7--|
|----------|

lyrics

possesions never meant anything to me, i'm not crazy (cause i've got none)
well that's not true, i've got a bed and a guitar and a dog named dog
who pisses on my floor, that's right i got a floor, so what, so what, so what?
i've got pockets full of kleenex and lint and holes
where everything important to me just seems to fall right down my leg
and on the floor my closest friend linoleum, linoleum
supports my head, gives me something to believe
that's me on the beach side combing the sand, metal meter in my hand
spoting a pocket full of change
that's me on the street with a violin under my chin
playing with a grin, singing gibberish
that's me on the back of the bus, that's me in the cell
that's me inside your head, that's me inside your head



Important: The song above is NOT stored on the Chordie server. The original song is hosted at www.xguitar.com. Chordie works as a search engine and provides on-the-fly formatting. Chordie does not index songs against artists'/composers' will. To remove this song please click here.

This song is displayed as text-only. Transposing and tuning is only available for chordpro-songs.

Login - add to songbook

Rating click stars to rate

Layout
Accuracy

Jango Player

SHARE PAGE  




You need to log in to post comments