Guitar Tabs, Chords and Lyrics


Sad Song  Oasis

e-----0---0-0-0-0-0-0--		---0-0---0-0---0-0---0-0---0-3-3-0-0---------


B-----1s3-3-1-1-1-1-1--	play	---1-1---1-1---1-1---1-1---1-1-1-1-1---------


G-----0---0-0-0-0-0-0--	three	---0-0---0-0---0-0---0-0---0-0-0-0-0---------


D-----2s4-4-2-2-2-2-2--	times,	---2-2-0-0-0---x-x---x-x---2-2-2-2-2---------


A--0--0---0-0-0-0-3-3--	then:	-0-----------3-3-3-2-2-2-0-0-0-0-0-0---------


E----------------------		--------------------------------------------


-------

Sing a [Am]sad song, in a [Fmaj7]lonely place
and [Dsus2]try to put a word in for [E]me[G]
It's been [Am]so long, since I [Fmaj7]found a space
you [Dsus2]better put in two or t[E]hree[G]
We as [Am]people are just [Fmaj7]walking 'round
Our [Dsus2]heads are firmly fixed in the g[E]round[G]
What we [Am]don't see, well it [Fmaj7]can't be real
What [Dsus2]we don't touch we cannot [E]feel[G]
Chorus
------

(NOTE: Each chord in the chorus is played by first picking the lowest
note in each chord, and then strumming the chord a few times.)
[C]   Where we're living [C/B]in this town
The [Am]sun is coming up and it's [F]going down
But it's [C]all just the [G]same at the end of the [D]day[Dsus4] [D]
					   e--2-2-2--3-3-3--2-2------
					   B--3-3-3--3-3-3--3-3------
	(tab for little riff):		   G--2-2-2--2-2-2--2-2------
					   D--0-0-0--0-0-0--0-0------
					   A-------------------------
					   E-------------------------

And we [C]cheat and we [C/B]lie
No[Am]body says it's wrong so we [F]don't ask why
Cause it [C]all stays the [G]same at the end of the [D]day[Dsus4] [D]
Throwing it [Fmaj7]all    aw[C]ay
Throwing it [Fmaj7]all    aw[C]ay
Throwing it [Fmaj7]all    aw[C]ay
at the end of the [E]day
Musical interlude
-----------------

(play INTRO again)
Verse 2
-------

(use same chords as VERSE 1)
If you're needing something I can give
You know I'd help you if I can
If you're honest and you say that you did
You know that I would give you my hand
Or a sad song in a lonely place
I'll try to put a word in for you
Need a shoulder-well if that's the case
You know there's nothing I wouldn't do
Chorus
------

Where we're living in this town
The sun is coming up and it's going down
But it's all just the same at the end of the day
And we cheat and we lie
Nobody says it's wrong so we don't ask why
Cause it's all just the same at the end of the day
So don't throw it all away
Don't throw it all away
Don't throw it all away
Don't throw it all away
Hey hey
(play below riff for a few measure before lyrics come in)
You're throwing it all away throwing it all away
e------------------0--0--0--0--0--0----------0--0--0---0--0--0------
B------------------1--0--1--1--0--1----------1--0--1---1--0--1------
G------------------2--2--2--0--0--0----------2--2--2---0--0--0------
D------------------3--3--3--2--2--2----------3--3--3---2--2--2------ (repeat)
A------------------3--3--3--3--3--3----------3--3--3---3--3--3------
E-------------------------------------------------------------------

Throwing it all a-way throwing it all away
e------------3--3--3--0----0--0--0----------3--3--3--0---0--0--0---------
B------------1--1--1--1----1--0--1----------1--1--1--1---1--0--1---------
G------------2--2--2--2----0--0--0----------2--2--2--2---0--0--0---------
D------------3--3--3--3----2--2--2----------3--3--3--3---2--2--2---------
A--------------------------3--3--3-----------------------3--3--3---------
E------------------------------------------------------------------------

At the end of the [Esus4]daaaaay-[E]haaaay          Whoops!
Outro
[-----](same as INTRO)

Important: The song above is NOT stored on the Chordie server. The original song is hosted at www.xguitar.com. Chordie works as a search engine and provides on-the-fly formatting. Chordie does not index songs against artists'/composers' will. To remove this song please click here.

Text color:
Chord color:
Chord grids: 
Font size:    
Page size: 

Am C C/B D Dsus2 Dsus4 E Esus4 F Fmaj7 G
variations - click chord images

Login - add to songbook

Transpose chords

Tuning

Rating click stars to rate

Layout
Accuracy

SHARE PAGE  




You need to log in to post comments