Porch

Pearl Jam




-|----------|-------x-------------------|--------x------------------|---------

-|---x---0--|-------x-------------------|--------x-5-5-5------------|---------

-|-x-x---0--|-2--2----------------------|--2--2--x-5-5-5-5-5--------|---------

-|-x-x---0--|-2--2-----5-5-5-5-5-4-2-0--|--2--2--x-5-5-5-5-5-4-2-0--|---------

-|-x--------|-0--0----------------------|--0--0---------------------|---------

-|---8-\-3--|---------------------------|---------------------------|---------

-|-----------------------|-----------------------|-------------------------|--

-|-----------------------|-----------------------|-------------------------|--

-|-2---2--2--5-5-5-----0-|-2---2--x-5-5-5-4---0--|-2---2--2-5-5--5-4---0-0-|--

-|-2---2--2--5-5-5-4-2-0-|-2---2--x-5-5-5-4-2-0--|-2---2--2-5-5--5-4-2-0-0-|--

-|-0---0--0--------------|-0---0-----------------|-0---0-------------------|--

-|-----------------------|-----------------------|-------------------------|--

-|----------------------|------------------------|----------------x-x-x-|-----

-|----------------------|------------------------|-----2--2-2--2--x-x-x-|-----

-|-2---2--2-5-5-5-4-2-0-|-2---2--2-5-5--4-2--0-0-|-2---2--2-2--2--x-x-x-|-----

-|-2---2--2-5-5-5-4-2-0-|-2---2--2-5-5--4-2--0-0-|-2---2--2-2--2--------|-----

-|-0---0----------------|-0---0------------------|-0---0--0-0--0--------|-----

-|----------------------|------------------------|----------------------|-----
-|-----------|----------|-----------|--------|--------------------------------
-|-----------|----------|-----------|--------|--------------------------------
-|-----------|----------|-----------|--------|--------------------------------
-|-----------|----------|-----------|--------|--------------------------------
-|-12-\------|-9-\------|-12-\------|--------|--------------------------------
-|-----------|----------|-----------|-3------|--------------------------------

Fill 1 < < < <
-|-----------|----------|-----------|-----------|-----------------------------
-|-----------|----------|-----------|-----------|-----------------------------
-|-12-\------|-9-\------|-----------|-----------|-----------------------------
-|-----------|----------|-7vvvvvvvv-|-7vvvvvvvv-|-----------------------------
-|-----------|----------|-----------|-----------|-----------------------------
-|-----------|----------|-----------|-----------|-----------------------------

Fill 2 < < < <
-|----------------|---------------|----------|------------------|-------------
-|----------------|---------------|----------|------------------|-------------
-|-4---4----------|-6--0----------|----------|-6-----6----------|-------------
-|-5---5--5-5-5-5-|-7-----7-7-7-7-|-8---8--8-|-7---7----7-7-7-7-|-------------
-|-5---5--5-5-5-5-|-7-----7-7-7-7-|-8-8----8-|-7--------7-7-7-7-|-------------
-|-3---3--3-3-3-3-|-5-----5-5-5-5-|-6------6-|-5--------5-5-5-5-|-------------

Chorus, G1
-|-------------|-------------|-------------|------------------------------|---
-|-------------|-------------|-------------|------------------------------|---
-|-------------|-6-----------|-7-----------|------------------------------|---
-|-5---5-5-5-5-|-7---7-7-7-7-|-8---8-8-8-8-|-10---10---10-10--10-10-10-10-|---
-|-5---5-5-5-5-|-7---7-7-7-7-|-8---8-8-8-8-|-10---10---10-10--10-10-10-10-|---
-|-3---3-3-3-3-|-5---5-5-5-5-|-6---6-6-6-6-|--8----8----8--8---8--8--8--8-|---
-|-3-----3----5-----5----6-----6----5-----5----3-----3----5-----5----|--------
-|-3---0------5---5------6---6------5---5------3---0------5---5------|--------
-|-0----------0----------0----------0----------0----------0----------|--------
-|-0----------0----------0----------0----------0----------0----------|--------
-|-2----------4----------5----------4----------2----------4----------|--------
-|-3----------5----------6----------5----------3----------5----------|--------

 C
-|-6-----6----8--8----|-------x-x-x----x-------|----------x-x-x------------|--
-|-6---6------8--8----|-------x-x-x----x-------|----------x-x-x-0--0-0-----|--
-|-0----------0--0----|-2--2--x-x-x-5--x-5p4---|-2--2--2--x-x-x-0--0-0---0-|--
-|-0----------0--0----|-2--2-----------------5-|-2--2--2--------x--x-x---0-|--
-|-5----------7--7----|-0--0-------------------|-0--0--0--------3--3-3p2-x-|--
-|-6----------8--8----|------------------------|-------------------------3-|--

G1 3x G2
-|-------x-x-x--------------|-----------------------|-----------------------|-
-|-------x-x-x--------------|-----------------------|---------0-0-0-0-0-----|-
-|-2--2--x-x-x-x-x----------|-2---2--x---0----------|-2---2---0-0-0-0-0-----|-
-|-2--2--------x-x-5-5------|-2---2--x---x----------|-2---2---x-x-x-x-x-----|-
-|-0--0--------3-3-3-3--2---|-0---0----3-3--3-3p2---|-0---0---3-3-3-3-3-2---|-
-|------------------------3-|---------------------3-|---------------------3-|-
-|-----------------------------|------------------------|-------------------|-
-|----x-x----x-x---------------|------------------------|-----------------0-|-
-|----x-x-2--x-x-5-5--4-2-0--0-|-2---2---5-5-5---x------|-----2--5-5-5-4--0-|-
-|--------2------5-5--4-2-0--0-|-2---2---5-5-5-4-x------|-2---2--5-5-5-4-2--|-
-|-0---------------------------|-----0------------------|-0---0-------------|-
-|-----------------------------|------------------3-3-3-|-------------------|-

2nd Verse
-|------------------------|---------------------|---------------------------|-
-|------------------------|---------------------|---------------------0-0---|-
-|----x-x-2---5-5-4---0---|-----2---5-5-4---0---|-2--x-x-2--x-x--5--5-0-0---|-
-|-2--x-x-2---5-5-4-2-0---|-2---2---5-5-4-2-0---|-2--x-x-2--x-x--5--5-------|-
-|-0------0---------------|-0---0---------------|---------------------------|-
-|--------------------x-x-|-----------------x-x-|-------------------------3-|-
-|--------------------------|-----------------------------|-------------------
-|--------------------------|-------------2-2-2-2-2-2-2-2-|-------------------
-|--------2--x-x-x-5--5-5-4-|--------2--2-2-2-2-2-2-2-2-2-|-------------------
-|--------2--x-x-x-5--5-5-4-|-2------2--2-2-2-2-2-2-2-2-2-|-------------------
-|-0--0-0-0-----------------|-0--0-0-0--0-0-0-0-0-0-0-0-0-|-------------------
-|--------------------------|-----------------------------|-------------------
-|-3------------5----------------6--------------5--------------|--------------
-|-3------------5----------------6--------------5--------------|--------------
-|-4------------6----------------7--------------6--------------|--------------
-|-5---5---5-5--7--7-7--7-7-7-7--8--8-8--8-8-8--7--7-7--7--7-7-|--------------
-|-5---5---5-5--7--7-7--7-7-7-7--8--8-8--8-8-8--7--7-7--7--7-7-|--------------
-|-3---3---3-3--5--5-5--5-5-5-5--6--6-6--6-6-6--5--5-5--5--5-5-|--------------

2nd Chorus, G1
-|-3----------------5------------6---------------8------------------|---------
-|-3----------------5------------6---------------8------------------|---------
-|-4----------------6------------7---------------9------------------|---------
-|-5--5-5--5-5-5-5--7--7-7--7-7--8--8-8--8-8-8--10--10-10--10-10-10-|---------
-|-5--5-5--5-5-5-5--7--7-7--7-7--8--8-8--8-8-8--10--10-10--10-10-10-|---------
-|-3--3-3--3-3-3-3--5--5-5--5-5--6--6-6--6-6-6---8---8--8---8--8--8-|---------

2x
-|-3------------5--------------6--------------8-------------|-----------------
-|-3------------5--------------6--------------8-------------|-----------------
-|-4------------6--------------7--------------9-------------|-----------------
-|-5--5-5--5-5--7--7-7--7-7-7--8--8-8-8-8-8--10-------------|-----------------
-|-5--5-5--5-5--7--7-7--7-7-7--8--8-8-8-8-8--10-------------|-----------------
-|-3--3-3--3-3--5--5-5--5-5-5--6--6-6-6-6-6---8-------------|-----------------
-|-3-----3----5-----5----6-----6-----5-----5---|------------------------------
-|-3---3------5---5-5----6---6----6--5---5-----|------------------------------
-|-0----------0----------0-----------0---------|------------------------------
-|-0----------0----------0-----------0---------|------------------------------
-|-2----------4----------5-----------4---------|------------------------------
-|-3----------5----------6-----------5---------|------------------------------

Chorus, G2
-|-3---3------5-----5----6-----6----8-8-8-8-8-8-|-----------------------------
-|-3-----3----5---5------6---6------8-8-8-8-8-8-|-----------------------------
-|-0-------0--0----------0----------0-0-0-0-0-0-|-----------------------------
-|-0----------0----------0----------0-0-0-0-0-0-|-----------------------------
-|-2----------4----------5----------7-7-7-7-7-7-|-----------------------------
-|-3----------5----------6----------8-8-8-8-8-8-|-----------------------------

2x
-|-3-----3----5-----5----6-----6----8-----------|-----------------------------
-|-3---3------5---5------6---6------8-----------|-----------------------------
-|-0----------0----------0----------0-----------|-----------------------------
-|-0----------0----------0----------0-----------|-----------------------------
-|-2----------4----------5----------7-----------|-----------------------------
-|-3----------5----------6----------8-----------|-----------------------------
-|------------|-----------------------|------------|--------------|-----------
-|------------|-----------------------|------------|--------------|-----------
-|-2b4--------|-2b4--2b4--2b4-2b4--r2-|-0----------|--------------|-----------
-|------------|-----------------------|---2vvvvvvv-|-2vvvvvv-x/---|-----------
-|------------|-----------------------|------------|--------------|-----------
-|------------|-----------------------|------------|------------0-|-----------

Solo, G1 |
-|------------|-----------------------|------------|--------------|-----------
-|------------|-----------------------|------------|--------------|-----------
-|------------|-----------------------|------------|--------------|-----------
-|------------|-----------------------|------------|--------------|-----------
-|------------|-----------------------|------------|---------x----|-----------
-|-0----------|-----------------------|------------|---------x----|-----------

Solo, G2
-|---------------|-------------|-----------|-3--------------|-----------------
-|-----------3---|-3-5--5vvvvv-|-5vvvvvv-5-|---5--5---5/-0--|-----------------
-|-2/4vvvvvv---4-|-------------|-----------|----------------|-----------------
-|---------------|-------------|-----------|----------------|-----------------
-|---------------|-------------|-----------|----------------|-----------------
-|---------------|-------------|-----------|----------------|-----------------

G1 |
-|---------------|-------------|-----------|----------------|-----------------
-|---------------|-------------|-----------|----------------|-----------------
-|---------------|-------------|-----------|----------------|-----------------
-|---------------|-------------|-----------|--------------x-|-----------------
-|---------------|-------------|-----------|-------------x--|-----------------
-|-0-------------|-------------|-----------|------------x---|-----------------

G2 rake
-|---------------|---------------------|--------------|---------------------|-
-|-15b17---------|-15b17r15vvvvv-15h17-|-15-12vvvvvvv-|---------------------|-
-|---------------|---------------------|--------------|-14b16r14p12-14vvvvv-|-
-|---------------|---------------------|--------------|---------------------|-
-|---------------|---------------------|--------------|---------------------|-
-|---------------|---------------------|--------------|---------------------|-

G1 |
-|---------------|---------------------|--------------|---------------------|-
-|---------------|---------------------|--------------|---------------------|-
-|---------------|---------------------|--------------|---------------------|-
-|---------------|---------------------|--------------|---------------------|-
-|---------------|-5^-------------5p0--|-2------------|-3-----------------x-|-
-|-0-------------|---------------------|--------------|---------------------|-

G2 pinch harmonic
-|----------12----------------|-12------------------------------------------|-
-|-------12----12-15b17vvvvvv-|---15p12-----12-12---------------------------|-
-|-14b16----------------------|--------14b16-----14b16r14-12----12h14-12vvv-|-
-|----------------------------|------------------------------14-------------|-
-|----------------------------|---------------------------------------------|-
-|----------------------------|---------------------------------------------|-

G1 |
-|----------------------------|---------------------------------------------|-
-|----------------------------|---------------------------------------------|-
-|----------------------------|---------------------------------------------|-
-|----------------------------|---------------------------------------------|-
-|-7--------------------------|-5----------------------------------------x--|-
-|----------------------------|---------------------------------------------|-

 G2
-|----------------|---------------|-------------------------------------------
-|----------------|---------------|-------------------------------------------
-|----------------|---------------|-------------------------------------------
-|-14-12vvvvv-12--|-12-14vvvvv----|-------------------------------------------
-|----------------|---------------|-------------------------------------------
-|----------------|---------------|-------------------------------------------

G1 |
-|----------------|---------------|-------------------------------------------
-|----------------|---------------|-------------------------------------------
-|----------------|---------------|-------------------------------------------
-|----------------|-2-------------|-------------------------------------------
-|-2--------------|-3-------------|-------------------------------------------
-|----------------|---------------|-------------------------------------------

 G2
-|--------------|-------------------|--------------|-----------------|--------
-|-8vvv-7vvvvv--|-7h8p7-5vvvvvvv----|--------------|-----------------|--------
-|--------------|-------------------|-7-/-9vvvvvvv-|--9--7vvvvv-7/-0-|--------
-|--------------|-------------------|--------------|---------------0-|--------
-|--------------|-------------------|--------------|-----------------|--------
-|--------------|-------------------|--------------|-----------------|--------

G1 |
-|-17b19--------|-17b19---17vvvv-15-|-15-----------|-----------------|--------
-|--------------|-------------------|----17vvvvvvv-|-17-15vvv--------|--------
-|--------------|-------------------|--------------|-----------------|--------
-|--------------|-------------------|--------------|-----------------|--------
-|--------------|-------------------|--------------|-----------------|--------
-|--------------|-------------------|--------------|-----------------|--------

G2 |
-|--------------|-------------------|--------------|-----------------|--------
-|--------------|-------------------|--------------|-5---------------|--------
-|--------------|-------------------|--------------|-5---------------|--------
-|--------------|-------------------|--------------|-5---------------|--------
-|-7--------7---|-5-----------------|-2--------2-0-|-3---------------|--------
-|--------------|-------------------|--------------|-----------------|--------

 G3
-|--------12---------------|-12---------------------------------------------|-
-|------12--12-15b17vvvvvv-|---15-12-----12-12------------------------------|-
-|-14b16-------------------|--------14b16-----14b16r14-12-----12-14-12vvv---|-
-|-------------------------|-----------------------------14-14--------------|-
-|-------------------------|------------------------------------------------|-
-|-------------------------|------------------------------------------------|-

G1 |
-|-------------------------|------------------------------------------------|-
-|-------------------------|------------------------------------------------|-
-|-12--11------------------|-12/14--12--------------------------------------|-
-|-------------------------|------------------------------------------------|-
-|-------------------------|------------------------------------------------|-
-|-------------------------|------------------------------------------------|-

G2 |
-|-------------------------|------------------------------------------------|-
-|-------------------------|------------------------------------------------|-
-|-------------------------|------------------------------------------------|-
-|-------------------------|------------------------------------------------|-
-|-5-/-7-------------------|-5----------------------------------------------|-
-|-------------------------|------------------------------------------------|-

 G3
-|-15b17r15vvvvvvv-|-17b19r17vvvvv-0-|----------12----------|----------0--|---
-|-----------------|-----------------|-------12----15vvvvvvv|vvvvvvvv--0--|---
-|-----------------|-----------------|-14b16----------------|-------------|---
-|-----------------|-----------------|----------------------|-------------|---
-|-----------------|-----------------|----------------------|-------------|---
-|-----------------|-----------------|----------------------|-------------|---

G1 |
-|-----------------|-----------------|----------12----------|-------------|---
-|-----------------|-----------------|-------12----15vvvvvv-|-15vvvvvv----|---
-|-12h14p12--------|-11----9vvvvvvv--|-14b16----------------|-------------|---
-|-----------------|-----------------|----------------------|-------------|---
-|-----------------|-----------------|----------------------|-------------|---
-|-----------------|-----------------|----------------------|-------------|---

G2 |
-|-----------------|-----------------|----------------------|-------------|---
-|-----------------|-----------------|----------------------|-------------|---
-|-----------------|-----------------|----------------------|-------------|---
-|-----------------|-----------------|----------------------|-------------|---
-|-2--------2--2---|-3---------------|-7--------------------|-5-----------|---
-|-----------------|-----------------|----------------------|-------------|---

 G3
-|----------12----------|--------0--|----------12---------|------------|------
-|-------12----15vvvvvvv|vvvvvvv-0--|-------12----15vvvvvv|vvvvvvvv----|------
-|-14b16----------------|-----------|-14b16---------------|------------|------
-|----------------------|-----------|---------------------|------------|------
-|----------------------|-----------|---------------------|------------|------
-|----------------------|-----------|---------------------|------------|------

G1 |
-|----------12----------|-----------|----------12---------|------------|------
-|-------12----15vvvvvvv|-15vvvvvv--|-------12----15vvvvvv|-15vvvvvv---|------
-|-14b16----------------|-----------|-14b16---------------|------------|------
-|----------------------|-----------|---------------------|------------|------
-|----------------------|-----------|---------------------|------------|------
-|----------------------|-----------|---------------------|------------|------

G2 out|
-|----------------------|-----------|---------------------|------------|------
-|-2--------------------|-2---------|-2-------------------|-2---2--2-2-|------
-|-2--------------------|-2---------|-2-------------------|-2---2--2-2-|------
-|-2--------------------|-2---------|-2-------------------|-2---2--2-2-|------
-|-0--------------------|-0---------|-0-------------------|-0---0--0-0-|------
-|----------------------|-----------|---------------------|------------|------

 G3
-|-----------|---------------------|-----------------|---------------------|--
-|-15--------|-------------\/-\/---|-vvvvvvvvvvvvvvv-|-vvvvvvvvvvvvvvvvvvv-|--
-|-----------|---------------------|-----------------|---------------------|--
-|-----------|---------------------|-----------------|---------------------|--
-|-----------|---------------------|-----------------|---------------------|--
-|-----------|---------------------|-----------------|---------------------|--

G1 let sustain trem.bar dips wide vibrato w/whammy bar |
-|------------------|--------------|-----------------|---------------------|--
-|------------------|--------------|-----------------|---------------------|--
-|-2--2-2-2-2-2-2-2-|-2-2-2-2--2-2-|-2-2-2-2-2-2-2-2-|-2-2-2-2-2-2-2-2-2-2-|--
-|-2--2-2-2-2-2-2-2-|-2-2-2-2--2-2-|-2-2-2-2-2-2-2-2-|-2-2-2-2-2-2-2-2-2-2-|--
-|-0--0-0-0-0-0-0-0-|-0-0-0-0--0-0-|-0-0-0-0-0-0-0-0-|-0-0-0-0-0-0-0-0-0-0-|--
-|------------------|--------------|-----------------|---------------------|--

 G3
-|--------------------------------------------------------------------------|-
-|-12--12-12-12-13--12----12-14--14-14-14-15--14-------15--15-16--15--------|-
-|-12--12-12-12--------12-12-14--14-14-14--------14-14-15--15--------15-15--|-
-|-12--12-12-12-----------12-14--14-14-14-----------14-15--15--------15-15--|-
-|-10--10-10-10--------------12--12-12-12--------------13--13---------------|-
-|--------------------------------------------------------------------------|-

Chorus/Outro, G1
-|--------------------------------------------------------|-------------------
-|-17-17--17\--12-12-12-13-12----12-14-14-14-15--14-------|-------------------
-|-17-17--17\--12-12-12-------12-12-14-14-14--------14-14-|-------------------
-|-17-17--17\--12-12-12----------12-14-14-14-----------14-|-------------------
-|-15-15--15\--10-10-10-------------12-12-12--------------|-------------------
-|--------------------------------------------------------|-------------------
-|-----------------------------------------------|----------------------------
-|-15-15-15-16--15-----17-17-17-17-17-17-17-17\--|----------------------------
-|-15-15-15--------15--17-17-17-17-17-17-17-17\--|----------------------------
-|-15-15-15------------17-17-17-17-17-17-17-17\--|----------------------------
-|-13-13-13------------15-15-15-15-15-15-15-15\--|----------------------------
-|-----------------------------------------------|----------------------------
-|---------------------------------------------------------------------|------
-|-------------------13p12-------12-----------------15p14--------14----|------
-|-------------------------12-----------------------------14--------14-|------
-|-12-12-12-12-12-12----------12-----14-14-14-14-14----------14--------|------
-|---------------------------------------------------------------------|------
-|---------------------------------------------------------------------|------
-|--------------------------------------------------------------------------|-
-|-------------------16p15-------15-----18p17--20p17--18p17--20p17--18p17---|-
-|-------------------------15-------15-------17-----17-----17-----17-----17-|-
-|-15-15-15-15-15-15----------15--------------------------------------------|-
-|--------------------------------------------------------------------------|-
-|--------------------------------------------------------------------------|-

Play last 2 lines four times
-|-----------------------------------------------------------------|----------
-|-12-12-12-13--12-----14-14-14-14-14-15--14--15-15-15-16--15--15--|----------
-|-12-12-12-12--12-12--14-14-14-14-14-14--14--15-15-15-15--15--15--|----------
-|-12-12-12-12--12-12--14-14-14-14-14-14--14--15-15-15-15--15--15--|----------
-|-10-10-10-10---------12-12-12-12-12-12--12--13-13-13-13--13--13--|----------
-|-----------------------------------------------------------------|----------
-|----------------------------------------|-----------------------------------
-|-17-17-17-17-17--17-17-17-17-17-17-17\--|-----------------------------------
-|-17-17-17-17-17--17-17-17-17-17-17-17\--|-----------------------------------
-|-17-17-17-17-17--17-17-17-17-17-17-17\--|-----------------------------------
-|-15-15-15-15-15--15-15-15-15-15-15-15\--|-----------------------------------
-|----------------------------------------|-----------------------------------
-|-------------------------------------------------------------|--------------
-|-12-12-12-13--12-----14-14-14-14-14-15--14--15-15-15-16--15--|--------------
-|-12-12-12-12--12-12--14-14-14-14-14-14--14--15-15-15-15--15--|--------------
-|-12-12-12-12--12-12--14-14-14-14-14-14--14--15-15-15-15--15--|--------------
-|-10-10-10-10---------12-12-12-12-12-12--12--13-13-13-13--13--|--------------
-|-------------------------------------------------------------|--------------
-|------------------|---------------|-----------------------------------------
-|-17---------------|-------------\-|-----------------------------------------
-|-17---------------|-------------\-|-----------------------------------------
-|-17---------------|-------------\-|-----------------------------------------
-|-15---------------|-------------\-|-----------------------------------------
-|------------------|---------------|-----------------------------------------

 End
-|-3---3----5---5----6---6----8--8--8--8--|-----------------------------------
-|-3---3----5---5----6---6----8--8--8--8--|-----------------------------------
-|-0---0----0---0----0---0----0--0--0--0--|-----------------------------------
-|-0---0----0---0----0---0----0--0--0--0--|-----------------------------------
-|-2---2----4---4----5---5----7--7--7--7--|-----------------------------------
-|-3---3----5---5----6---6----8--8--8--8--|-----------------------------------

Outro, G2 7x
-|-3---3----5---5----6---6----8---------------|-------------------------------
-|-3---3----5---5----6---6----8-----8---------|-------------------------------
-|-0---0----0---0----0---0----0-----9---------|-------------------------------
-|-0---0----0---0----0---0----0----10----2h5--|-------------------------------
-|-2---2----4---4----5---5----7----10---------|-------------------------------
-|-3---3----5---5----6---6----8-----8---------|-------------------------------

 End

C G2 G3
variations - click chord images
Transpose chords:
Tuning:
Cool service:
View: Size:
A  A  A
Rating:
Layout:
  • Currently 3.3/5 Stars.
  • 1
  • 2
  • 3
  • 4
  • 5
 
Accuracy:
  • Currently 3.1/5 Stars.
  • 1
  • 2
  • 3
  • 4
  • 5
 
click stars to rate
Chordie recommends:
Learn to play songs at Jamplay.com with video guitar lessons
Songbook:
Login to add this song to your songbook
Support the artist
Preview/buy this song
MSN Music
Why this non-profit ad?

 
login to add comments/video/corrections