Mike's Song

Phish

---------------------------------------------------------------------------|

---------------------------------------------------------------------------|
-----------------------------9/11--11--11-11--------------------6----------|
-----------------------9/11--------------------9/11-------------6----------|
-------7-7--9-9-9/-11-------------------------------------------4----------|
---9-9---------------------------------------------------------------------|
-------------------------------|
-------------------------------|
---6---6--4---6----9--11-------|
---6---6--4---6----9--11-------|
---4---4--2---4----7---9-------|
-------------------------------|
 C#C#BC#EF#
Lyrics for verse:
Trapped in time, and I don't know what to do
 C#C#BC#EF#
 These friends of mine, I can see right through
You don't gotta tell me, I don't gotta move
cause I'm sittin' back here, sharin in the grooo, oove

These may not be totally correct, I had to guess. On the word groove Trey
slides down to an E chord. Now the Chorus:

 EADB
Lyrics for the Chorus:
We don't want no nice guy
 EADB
 We don't want no nice guy
We don't want no nice guy
We don't want no nice guy...

on the last B, play C and then C#, which will send you right back into the
verse. Listen to the recording and it's a peice of cake. The next and
final set of lyrics for the verse are as follows:

I walk through the doorways, inside my mind
I chase the backbeat, hard and long
He stood in the doorway, blocking my way
he reached and grabbed me, this is what he say...

then the chorus again. After the chorus, again play the C and C# after
the B, but then instead of going back into the verse, play the higher E
power chord. After a second he goes into a little thingy where he goes
back and forth from E to D....listen to
it, it works. He then plays more on the E chord, does the E to D thing
again, but on the last D he goes right to the high F# power chord. Then
the whole band goes into a funky groove on the F# scale. And there you
have it, I hope this was clear enough. If you have any suggestions e-mail
me at JestrsReve@aol.com.

by Drew Best


A B C# D E F#
variations - click chord images
Transpose chords:
Tuning:
Cool service:
View: Size:
A  A  A
Rating:
Layout:
  • Currently 4/5 Stars.
  • 1
  • 2
  • 3
  • 4
  • 5
 
Accuracy:
  • Currently 3/5 Stars.
  • 1
  • 2
  • 3
  • 4
  • 5
 
click stars to rate
Chordie recommends:
Learn to play songs at Jamplay.com with video guitar lessons
Songbook:
Login to add this song to your songbook
Support the artist
Preview/buy this song
MSN Music
Why this non-profit ad?

 
login to add comments/video/corrections